  0
SECTION
  2
HEADER
  9
$ACADVER
  1
AC1024
  9
$ACADMAINTVER
 70
    10
  9
$DWGCODEPAGE
  3
ANSI_1252
  9
$LASTSAVEDBY
  1
MarquissS
  9
$INSBASE
 10
0.0
 20
0.0
 30
0.0
  9
$EXTMIN
 10
23009.45285485459
 20
56791.47387633473
 30
0.0
  9
$EXTMAX
 10
23017.95522376264
 20
56800.08398874774
 30
0.0
  9
$LIMMIN
 10
0.0
 20
0.0
  9
$LIMMAX
 10
12.0
 20
9.0
  9
$ORTHOMODE
 70
     1
  9
$REGENMODE
 70
     1
  9
$FILLMODE
 70
     1
  9
$QTEXTMODE
 70
     0
  9
$MIRRTEXT
 70
     0
  9
$LTSCALE
 40
0.5
  9
$ATTMODE
 70
     1
  9
$TEXTSIZE
 40
0.08
  9
$TRACEWID
 40
0.05
  9
$TEXTSTYLE
  7
STANDARD
  9
$CLAYER
  8
PAVEMENT
  9
$CELTYPE
  6
ByLayer
  9
$CECOLOR
 62
   256
  9
$CELTSCALE
 40
1.0
  9
$DISPSILH
 70
     0
  9
$DIMSCALE
 40
1.0
  9
$DIMASZ
 40
264.0
  9
$DIMEXO
 40
72.0
  9
$DIMDLI
 40
3.0
  9
$DIMRND
 40
0.0
  9
$DIMDLE
 40
0.0
  9
$DIMEXE
 40
72.0
  9
$DIMTP
 40
0.0
  9
$DIMTM
 40
0.0
  9
$DIMTXT
 40
144.0
  9
$DIMCEN
 40
0.09
  9
$DIMTSZ
 40
0.0
  9
$DIMTOL
 70
     0
  9
$DIMLIM
 70
     0
  9
$DIMTIH
 70
     1
  9
$DIMTOH
 70
     1
  9
$DIMSE1
 70
     0
  9
$DIMSE2
 70
     0
  9
$DIMTAD
 70
     0
  9
$DIMZIN
 70
     0
  9
$DIMBLK
  1

  9
$DIMASO
 70
     1
  9
$DIMSHO
 70
     0
  9
$DIMPOST
  1

  9
$DIMAPOST
  1

  9
$DIMALT
 70
     0
  9
$DIMALTD
 70
     2
  9
$DIMALTF
 40
25.4
  9
$DIMLFAC
 40
1.0
  9
$DIMTOFL
 70
     0
  9
$DIMTVP
 40
0.0
  9
$DIMTIX
 70
     0
  9
$DIMSOXD
 70
     0
  9
$DIMSAH
 70
     0
  9
$DIMBLK1
  1

  9
$DIMBLK2
  1

  9
$DIMSTYLE
  2
TDG-3
  9
$DIMCLRD
 70
     0
  9
$DIMCLRE
 70
     0
  9
$DIMCLRT
 70
     0
  9
$DIMTFAC
 40
1.0
  9
$DIMGAP
 40
72.0
  9
$DIMJUST
 70
     0
  9
$DIMSD1
 70
     0
  9
$DIMSD2
 70
     0
  9
$DIMTOLJ
 70
     1
  9
$DIMTZIN
 70
     0
  9
$DIMALTZ
 70
     0
  9
$DIMALTTZ
 70
     0
  9
$DIMUPT
 70
     0
  9
$DIMDEC
 70
     0
  9
$DIMTDEC
 70
     0
  9
$DIMALTU
 70
     2
  9
$DIMALTTD
 70
     2
  9
$DIMTXSTY
  7
STANDARD
  9
$DIMAUNIT
 70
     0
  9
$DIMADEC
 70
     0
  9
$DIMALTRND
 40
0.0
  9
$DIMAZIN
 70
     0
  9
$DIMDSEP
 70
    46
  9
$DIMATFIT
 70
     3
  9
$DIMFRAC
 70
     0
  9
$DIMLDRBLK
  1

  9
$DIMLUNIT
 70
     4
  9
$DIMLWD
 70
    -2
  9
$DIMLWE
 70
    -2
  9
$DIMTMOVE
 70
     0
  9
$DIMFXL
 40
1.0
  9
$DIMFXLON
 70
     0
  9
$DIMJOGANG
 40
0.7853981633974483
  9
$DIMTFILL
 70
     0
  9
$DIMTFILLCLR
 70
     0
  9
$DIMARCSYM
 70
     0
  9
$DIMLTYPE
  6

  9
$DIMLTEX1
  6

  9
$DIMLTEX2
  6

  9
$DIMTXTDIRECTION
 70
     0
  9
$LUNITS
 70
     2
  9
$LUPREC
 70
     4
  9
$SKETCHINC
 40
0.1
  9
$FILLETRAD
 40
0.0
  9
$AUNITS
 70
     0
  9
$AUPREC
 70
     0
  9
$MENU
  1
acad
  9
$ELEVATION
 40
0.0
  9
$PELEVATION
 40
0.0
  9
$THICKNESS
 40
0.0
  9
$LIMCHECK
 70
     0
  9
$CHAMFERA
 40
0.0
  9
$CHAMFERB
 40
0.0
  9
$CHAMFERC
 40
0.0
  9
$CHAMFERD
 40
0.0
  9
$SKPOLY
 70
     0
  9
$TDCREATE
 40
2448734.622829398
  9
$TDUCREATE
 40
2448734.831162732
  9
$TDUPDATE
 40
2457001.661363507
  9
$TDUUPDATE
 40
2457001.869696840
  9
$TDINDWG
 40
13.3939933912
  9
$TDUSRTIMER
 40
13.3939933565
  9
$USRTIMER
 70
     1
  9
$ANGBASE
 50
0.0
  9
$ANGDIR
 70
     0
  9
$PDMODE
 70
     0
  9
$PDSIZE
 40
0.0
  9
$PLINEWID
 40
0.0
  9
$SPLFRAME
 70
     0
  9
$SPLINETYPE
 70
     6
  9
$SPLINESEGS
 70
     8
  9
$HANDSEED
  5
1098A
  9
$SURFTAB1
 70
     6
  9
$SURFTAB2
 70
     6
  9
$SURFTYPE
 70
     6
  9
$SURFU
 70
     6
  9
$SURFV
 70
     6
  9
$UCSBASE
  2

  9
$UCSNAME
  2

  9
$UCSORG
 10
0.0
 20
0.0
 30
0.0
  9
$UCSXDIR
 10
1.0
 20
0.0
 30
0.0
  9
$UCSYDIR
 10
0.0
 20
1.0
 30
0.0
  9
$UCSORTHOREF
  2

  9
$UCSORTHOVIEW
 70
     0
  9
$UCSORGTOP
 10
0.0
 20
0.0
 30
0.0
  9
$UCSORGBOTTOM
 10
0.0
 20
0.0
 30
0.0
  9
$UCSORGLEFT
 10
0.0
 20
0.0
 30
0.0
  9
$UCSORGRIGHT
 10
0.0
 20
0.0
 30
0.0
  9
$UCSORGFRONT
 10
0.0
 20
0.0
 30
0.0
  9
$UCSORGBACK
 10
0.0
 20
0.0
 30
0.0
  9
$PUCSBASE
  2

  9
$PUCSNAME
  2

  9
$PUCSORG
 10
0.0
 20
0.0
 30
0.0
  9
$PUCSXDIR
 10
1.0
 20
0.0
 30
0.0
  9
$PUCSYDIR
 10
0.0
 20
1.0
 30
0.0
  9
$PUCSORTHOREF
  2

  9
$PUCSORTHOVIEW
 70
     0
  9
$PUCSORGTOP
 10
0.0
 20
0.0
 30
0.0
  9
$PUCSORGBOTTOM
 10
0.0
 20
0.0
 30
0.0
  9
$PUCSORGLEFT
 10
0.0
 20
0.0
 30
0.0
  9
$PUCSORGRIGHT
 10
0.0
 20
0.0
 30
0.0
  9
$PUCSORGFRONT
 10
0.0
 20
0.0
 30
0.0
  9
$PUCSORGBACK
 10
0.0
 20
0.0
 30
0.0
  9
$USERI1
 70
     0
  9
$USERI2
 70
     0
  9
$USERI3
 70
     0
  9
$USERI4
 70
     0
  9
$USERI5
 70
     0
  9
$USERR1
 40
0.0
  9
$USERR2
 40
0.0
  9
$USERR3
 40
0.0
  9
$USERR4
 40
0.0
  9
$USERR5
 40
0.0
  9
$WORLDVIEW
 70
     1
  9
$SHADEDGE
 70
     3
  9
$SHADEDIF
 70
    70
  9
$TILEMODE
 70
     1
  9
$MAXACTVP
 70
    64
  9
$PINSBASE
 10
0.0
 20
0.0
 30
0.0
  9
$PLIMCHECK
 70
     0
  9
$PEXTMIN
 10
1.000000000000000E+20
 20
1.000000000000000E+20
 30
1.000000000000000E+20
  9
$PEXTMAX
 10
-1.000000000000000E+20
 20
-1.000000000000000E+20
 30
-1.000000000000000E+20
  9
$PLIMMIN
 10
0.0
 20
0.0
  9
$PLIMMAX
 10
12.0
 20
9.0
  9
$UNITMODE
 70
     0
  9
$VISRETAIN
 70
     1
  9
$PLINEGEN
 70
     0
  9
$PSLTSCALE
 70
     1
  9
$TREEDEPTH
 70
  3020
  9
$CMLSTYLE
  2
Standard
  9
$CMLJUST
 70
     0
  9
$CMLSCALE
 40
1.0
  9
$PROXYGRAPHICS
 70
     1
  9
$MEASUREMENT
 70
     0
  9
$CELWEIGHT
370
    -1
  9
$ENDCAPS
280
     0
  9
$JOINSTYLE
280
     0
  9
$LWDISPLAY
290
     0
  9
$INSUNITS
 70
     0
  9
$HYPERLINKBASE
  1

  9
$STYLESHEET
  1

  9
$XEDIT
290
     1
  9
$CEPSNTYPE
380
     0
  9
$PSTYLEMODE
290
     1
  9
$FINGERPRINTGUID
  2
{68FA131D-F0AF-4AC8-B5BF-F07BD7197CDD}
  9
$VERSIONGUID
  2
{3218A6D7-2669-455B-9A22-ACCFD1FAAD15}
  9
$EXTNAMES
290
     1
  9
$PSVPSCALE
 40
0.0
  9
$OLESTARTUP
290
     0
  9
$SORTENTS
280
   127
  9
$INDEXCTL
280
     0
  9
$HIDETEXT
280
     0
  9
$XCLIPFRAME
280
     2
  9
$HALOGAP
280
     0
  9
$OBSCOLOR
 70
   257
  9
$OBSLTYPE
280
     0
  9
$INTERSECTIONDISPLAY
280
     0
  9
$INTERSECTIONCOLOR
 70
   257
  9
$DIMASSOC
280
     1
  9
$PROJECTNAME
  1

  9
$CAMERADISPLAY
290
     0
  9
$LENSLENGTH
 40
50.0
  9
$CAMERAHEIGHT
 40
0.0
  9
$STEPSPERSEC
 40
2.0
  9
$STEPSIZE
 40
6.0
  9
$3DDWFPREC
 40
2.0
  9
$PSOLWIDTH
 40
0.25
  9
$PSOLHEIGHT
 40
4.0
  9
$LOFTANG1
 40
1.570796326794896
  9
$LOFTANG2
 40
1.570796326794896
  9
$LOFTMAG1
 40
0.0
  9
$LOFTMAG2
 40
0.0
  9
$LOFTPARAM
 70
     7
  9
$LOFTNORMALS
280
     1
  9
$LATITUDE
 40
37.795
  9
$LONGITUDE
 40
-122.394
  9
$NORTHDIRECTION
 40
0.0
  9
$TIMEZONE
 70
 -8000
  9
$LIGHTGLYPHDISPLAY
280
     1
  9
$TILEMODELIGHTSYNCH
280
     1
  9
$CMATERIAL
347
310
  9
$SOLIDHIST
280
     0
  9
$SHOWHIST
280
     1
  9
$DWFFRAME
280
     2
  9
$DGNFRAME
280
     0
  9
$REALWORLDSCALE
290
     1
  9
$INTERFERECOLOR
 62
     1
  9
$INTERFEREOBJVS
345
332
  9
$INTERFEREVPVS
346
32F
  9
$CSHADOW
280
     0
  9
$SHADOWPLANELOCATION
 40
0.0
  0
ENDSEC
  0
SECTION
  2
CLASSES
  0
CLASS
  1
ACDBDICTIONARYWDFLT
  2
AcDbDictionaryWithDefault
  3
ObjectDBX Classes
 90
        0
 91
        1
280
     0
281
     0
  0
CLASS
  1
DICTIONARYVAR
  2
AcDbDictionaryVar
  3
ObjectDBX Classes
 90
        0
 91
       11
280
     0
281
     0
  0
CLASS
  1
MATERIAL
  2
AcDbMaterial
  3
ObjectDBX Classes
 90
     1153
 91
        3
280
     0
281
     0
  0
CLASS
  1
VISUALSTYLE
  2
AcDbVisualStyle
  3
ObjectDBX Classes
 90
     4095
 91
       26
280
     0
281
     0
  0
CLASS
  1
TABLESTYLE
  2
AcDbTableStyle
  3
ObjectDBX Classes
 90
     4095
 91
        1
280
     0
281
     0
  0
CLASS
  1
SCALE
  2
AcDbScale
  3
ObjectDBX Classes
 90
     1153
 91
       17
280
     0
281
     0
  0
CLASS
  1
MLEADERSTYLE
  2
AcDbMLeaderStyle
  3
ACDB_MLEADERSTYLE_CLASS
 90
     4095
 91
        1
280
     0
281
     0
  0
CLASS
  1
SORTENTSTABLE
  2
AcDbSortentsTable
  3
ObjectDBX Classes
 90
        0
 91
        1
280
     0
281
     0
  0
CLASS
  1
ACARRAYJIGENTITY
  2
AcArrayJigEntity
  3
ACAD_ARRAY
 90
      129
 91
        0
280
     0
281
     1
  0
CLASS
  1
ACDBASSOCNETWORK
  2
AcDbAssocNetwork
  3
ObjectDBX Classes
 90
     1025
 91
        0
280
     0
281
     0
  0
CLASS
  1
ACDBASSOCACTION
  2
AcDbAssocAction
  3
ObjectDBX Classes
 90
     1025
 91
        0
280
     0
281
     0
  0
CLASS
  1
ACDBASSOCARRAYACTIONBODY
  2
AcDbAssocArrayActionBody
  3
ObjectDBX Classes
 90
     1025
 91
        0
280
     0
281
     0
  0
CLASS
  1
ACDBASSOCVERTEXACTIONPARAM
  2
AcDbAssocVertexActionParam
  3
ObjectDBX Classes
 90
     1025
 91
        0
280
     0
281
     0
  0
CLASS
  1
ACDBASSOCDEPENDENCY
  2
AcDbAssocDependency
  3
ObjectDBX Classes
 90
     1025
 91
        0
280
     0
281
     0
  0
CLASS
  1
ACDBASSOCARRAYPOLARPARAMETERS
  2
AcDbAssocArrayPolarParameters
  3
ObjectDBX Classes
 90
     1025
 91
        0
280
     0
281
     0
  0
CLASS
  1
CELLSTYLEMAP
  2
AcDbCellStyleMap
  3
ObjectDBX Classes
 90
     1152
 91
        1
280
     0
281
     0
  0
CLASS
  1
IMAGEDEF
  2
AcDbRasterImageDef
  3
ISM
 90
        0
 91
        1
280
     0
281
     0
  0
CLASS
  1
EXACXREFPANELOBJECT
  2
ExAcXREFPanelObject
  3
EXAC_ESW
 90
     1025
 91
        0
280
     0
281
     0
  0
CLASS
  1
NPOCOLLECTION
  2
AcDbImpNonPersistentObjectsCollection
  3
ObjectDBX Classes
 90
     1153
 91
        0
280
     0
281
     0
  0
CLASS
  1
AEC_REFEDIT_STATUS_TRACKER
  2
AecDbRefEditStatusTracker
  3
AecArchBase60|Product Desc: Autodesk Architectural Desktop 2007 |Company: Autodesk,Inc. |WEB Address: www.autodesk.com
 90
      129
 91
        0
280
     0
281
     0
  0
ENDSEC
  0
SECTION
  2
TABLES
  0
TABLE
  2
VPORT
  5
8
330
0
100
AcDbSymbolTable
 70
     1
  0
VPORT
  5
30D
330
8
100
AcDbSymbolTableRecord
100
AcDbViewportTableRecord
  2
*Active
 70
     0
 10
0.0
 20
0.0
 11
1.0
 21
1.0
 12
23014.70712453513
 22
56795.77893254123
 13
0.0
 23
0.0
 14
1.0
 24
1.0
 15
0.0
 25
0.0
 16
0.0
 26
0.0
 36
1.0
 17
0.0
 27
0.0
 37
0.0
 40
8.671524715897142
 41
2.171624713958809
 42
50.0
 43
0.0
 44
0.0
 50
0.0
 51
0.0
 71
     0
 72
 20000
 73
     1
 74
     1
 75
     0
 76
     0
 77
     0
 78
     0
281
     0
 65
     0
110
0.0
120
0.0
130
0.0
111
1.0
121
0.0
131
0.0
112
0.0
122
1.0
132
0.0
 79
     0
146
0.0
348
32E
 60
     3
 61
     5
292
     1
282
     1
141
0.0
142
0.0
 63
   250
421
  3355443
1001
ACAD_NAV_VCDISPLAY
1070
     3
  0
ENDTAB
  0
TABLE
  2
LTYPE
  5
5
330
0
100
AcDbSymbolTable
 70
     2
  0
LTYPE
  5
13
330
5
100
AcDbSymbolTableRecord
100
AcDbLinetypeTableRecord
  2
ByBlock
 70
     0
  3

 72
    65
 73
     0
 40
0.0
  0
LTYPE
  5
14
330
5
100
AcDbSymbolTableRecord
100
AcDbLinetypeTableRecord
  2
ByLayer
 70
     0
  3

 72
    65
 73
     0
 40
0.0
  0
LTYPE
  5
15
330
5
100
AcDbSymbolTableRecord
100
AcDbLinetypeTableRecord
  2
CONTINUOUS
 70
     0
  3
Solid line
 72
    65
 73
     0
 40
0.0
  0
LTYPE
  5
52DF
330
5
100
AcDbSymbolTableRecord
100
AcDbLinetypeTableRecord
  2
DASHED
 70
     0
  3
Dashed __ __ __ __ __ __ __ __ __ __ __ __ __ _
 72
    65
 73
     2
 40
0.75
 49
0.5
 74
     0
 49
-0.25
 74
     0
  0
ENDTAB
  0
TABLE
  2
LAYER
  5
2
102
{ACAD_XDICTIONARY
360
402
102
}
330
0
100
AcDbSymbolTable
 70
     9
  0
LAYER
  5
10
102
{ACAD_XDICTIONARY
360
53F
102
}
330
2
100
AcDbSymbolTableRecord
100
AcDbLayerTableRecord
  2
0
 70
     0
 62
    30
  6
CONTINUOUS
370
    -3
390
F
347
320
  0
LAYER
  5
24C
330
2
100
AcDbSymbolTableRecord
100
AcDbLayerTableRecord
  2
Defpoints
 70
     0
 62
     7
  6
CONTINUOUS
290
     0
370
    -3
390
F
347
320
  0
LAYER
  5
20B9
330
2
100
AcDbSymbolTableRecord
100
AcDbLayerTableRecord
  2
DIM
 70
     0
 62
     7
  6
CONTINUOUS
370
    -3
390
F
347
320
1001
AcAecLayerStandard
1000

1000

  0
LAYER
  5
4A3A
330
2
100
AcDbSymbolTableRecord
100
AcDbLayerTableRecord
  2
PAVEMENT
 70
     0
 62
     7
  6
CONTINUOUS
370
    -3
390
F
347
320
1001
AcAecLayerStandard
1000

1000

  0
LAYER
  5
4B50
330
2
100
AcDbSymbolTableRecord
100
AcDbLayerTableRecord
  2
GRID
 70
     0
 62
     6
  6
CONTINUOUS
370
    -3
390
F
347
320
1001
AcAecLayerStandard
1000

1000

  0
LAYER
  5
5260
330
2
100
AcDbSymbolTableRecord
100
AcDbLayerTableRecord
  2
2 foot edge
 70
     0
 62
     2
  6
CONTINUOUS
370
    -3
390
F
347
320
1001
AcAecLayerStandard
1000

1000

  0
LAYER
  5
54C1
330
2
100
AcDbSymbolTableRecord
100
AcDbLayerTableRecord
  2
DOWEL
 70
     0
 62
     7
  6
CONTINUOUS
370
    -3
390
F
347
320
1001
AcAecLayerStandard
1000

1000

  0
LAYER
  5
74EA
102
{ACAD_XDICTIONARY
360
74EB
102
}
330
2
100
AcDbSymbolTableRecord
100
AcDbLayerTableRecord
  2
border
 70
     0
 62
     7
  6
CONTINUOUS
370
    -3
390
F
347
320
  0
LAYER
  5
9B31
330
2
100
AcDbSymbolTableRecord
100
AcDbLayerTableRecord
  2
island
 70
     0
 62
    71
  6
CONTINUOUS
370
    -3
390
F
347
320
1001
AcAecLayerStandard
1000

1000

1001
AcCmTransparency
1071
        0
  0
ENDTAB
  0
TABLE
  2
STYLE
  5
3
330
0
100
AcDbSymbolTable
 70
     1
  0
STYLE
  5
11
330
3
100
AcDbSymbolTableRecord
100
AcDbTextStyleTableRecord
  2
STANDARD
 70
     0
 40
0.08
 41
1.0
 50
0.0
 71
     0
 42
0.08
  3
arial.ttf
  4

1001
ACAD
1000
Arial
1071
       34
  0
ENDTAB
  0
TABLE
  2
VIEW
  5
6
330
0
100
AcDbSymbolTable
 70
     0
  0
ENDTAB
  0
TABLE
  2
UCS
  5
7
330
0
100
AcDbSymbolTable
 70
     0
  0
ENDTAB
  0
TABLE
  2
APPID
  5
9
330
0
100
AcDbSymbolTable
 70
    17
  0
APPID
  5
12
330
9
100
AcDbSymbolTableRecord
100
AcDbRegAppTableRecord
  2
ACAD
 70
     0
  0
APPID
  5
35C
330
9
100
AcDbSymbolTableRecord
100
AcDbRegAppTableRecord
  2
AcAecLayerStandard
 70
     0
  0
APPID
  5
35D
330
9
100
AcDbSymbolTableRecord
100
AcDbRegAppTableRecord
  2
AcCmTransparency
 70
     0
  0
APPID
  5
3E8
330
9
100
AcDbSymbolTableRecord
100
AcDbRegAppTableRecord
  2
ACAD_NAV_VCDISPLAY
 70
     0
  0
APPID
  5
400
330
9
100
AcDbSymbolTableRecord
100
AcDbRegAppTableRecord
  2
ACAD_DSTYLE_DIMJAG
 70
     0
  0
APPID
  5
401
330
9
100
AcDbSymbolTableRecord
100
AcDbRegAppTableRecord
  2
ACAD_DSTYLE_DIMTALN
 70
     0
  0
APPID
  5
43B
330
9
100
AcDbSymbolTableRecord
100
AcDbRegAppTableRecord
  2
ACAD_DSTYLE_DIMRADIAL_EXTENSION
 70
     0
  0
APPID
  5
6BA
330
9
100
AcDbSymbolTableRecord
100
AcDbRegAppTableRecord
  2
ACAD_MLEADERVER
 70
     0
  0
APPID
  5
6FD
330
9
100
AcDbSymbolTableRecord
100
AcDbRegAppTableRecord
  2
ACAD_EXEMPT_FROM_CAD_STANDARDS
 70
     0
  0
APPID
  5
F4B
330
9
100
AcDbSymbolTableRecord
100
AcDbRegAppTableRecord
  2
GradientColor1ACI
 70
     0
  0
APPID
  5
F4C
330
9
100
AcDbSymbolTableRecord
100
AcDbRegAppTableRecord
  2
GradientColor2ACI
 70
     0
  0
APPID
  5
1F8D
330
9
100
AcDbSymbolTableRecord
100
AcDbRegAppTableRecord
  2
ACAD_PSEXT
 70
     0
  0
APPID
  5
20BD
330
9
100
AcDbSymbolTableRecord
100
AcDbRegAppTableRecord
  2
AcadAnnoPO
 70
     0
  0
APPID
  5
20BE
330
9
100
AcDbSymbolTableRecord
100
AcDbRegAppTableRecord
  2
AcadAnnotative
 70
     0
  0
APPID
  5
20BF
330
9
100
AcDbSymbolTableRecord
100
AcDbRegAppTableRecord
  2
AdeskUnderlayLayerOverrideData
 70
     0
  0
APPID
  5
20C0
330
9
100
AcDbSymbolTableRecord
100
AcDbRegAppTableRecord
  2
DCO15
 70
     0
  0
APPID
  5
20C1
330
9
100
AcDbSymbolTableRecord
100
AcDbRegAppTableRecord
  2
ACAD_DSTYLE_DIMBREAK
 70
     0
  0
ENDTAB
  0
TABLE
  2
DIMSTYLE
  5
A
330
0
100
AcDbSymbolTable
 70
     2
100
AcDbDimStyleTable
 71
     2
340
2D0B
340
1E0
  0
DIMSTYLE
105
1E0
330
A
100
AcDbSymbolTableRecord
100
AcDbDimStyleTableRecord
  2
Standard
 70
     0
140
10.0
271
     0
272
     0
340
11
1001
ACAD_DSTYLE_DIMJAG
1070
   388
1040
1.5
1001
ACAD_DSTYLE_DIMTALN
1070
   392
1070
     0
  0
DIMSTYLE
105
2D0B
330
A
100
AcDbSymbolTableRecord
100
AcDbDimStyleTableRecord
  2
TDG-3
 70
     0
 41
264.0
 42
72.0
 43
3.0
 44
72.0
140
144.0
147
72.0
271
     0
272
     0
277
     4
340
11
1001
ACAD_DSTYLE_DIMBREAK
1070
   391
1040
0.125
1001
ACAD_DSTYLE_DIMJAG
1070
   388
1040
1.5
1001
ACAD_DSTYLE_DIMTALN
1070
   392
1070
     0
  0
ENDTAB
  0
TABLE
  2
BLOCK_RECORD
  5
1
330
0
100
AcDbSymbolTable
 70
     0
  0
BLOCK_RECORD
  5
1E
102
{ACAD_XDICTIONARY
360
3A3
102
}
330
1
100
AcDbSymbolTableRecord
100
AcDbBlockTableRecord
  2
*Model_Space
340
21
 70
     0
280
     1
281
     0
  0
BLOCK_RECORD
  5
1A
330
1
100
AcDbSymbolTableRecord
100
AcDbBlockTableRecord
  2
*Paper_Space
340
1D
 70
     0
280
     1
281
     0
  0
ENDTAB
  0
ENDSEC
  0
SECTION
  2
BLOCKS
  0
BLOCK
  5
1F
330
1E
100
AcDbEntity
  8
0
100
AcDbBlockBegin
  2
*Model_Space
 70
     0
 10
0.0
 20
0.0
 30
0.0
  3
*Model_Space
  1

  0
ENDBLK
  5
20
330
1E
100
AcDbEntity
  8
0
100
AcDbBlockEnd
  0
BLOCK
  5
1B
330
1A
100
AcDbEntity
 67
     1
  8
0
100
AcDbBlockBegin
  2
*Paper_Space
 70
     0
 10
0.0
 20
0.0
 30
0.0
  3
*Paper_Space
  1

  0
ENDBLK
  5
1C
330
1A
100
AcDbEntity
 67
     1
  8
0
100
AcDbBlockEnd
  0
ENDSEC
  0
SECTION
  2
ENTITIES
  0
TEXT
  5
ACEF
330
1E
100
AcDbEntity
  8
PAVEMENT
100
AcDbText
 10
23013.42257194478
 20
56793.82730501963
 30
0.0
 40
0.119138990381087
  1
LEGEND:
 72
     1
 11
23013.78791255273
 21
56793.82730501963
 31
0.0
100
AcDbText
  0
LWPOLYLINE
  5
ACF0
330
1E
100
AcDbEntity
  8
GRID
100
AcDbPolyline
 90
        2
 70
     0
 43
0.010444518156742
 10
23011.60008847518
 20
56792.67597957216
 10
23012.41858767056
 20
56792.67597957216
  0
LWPOLYLINE
  5
ACF1
330
1E
100
AcDbEntity
  8
GRID
 62
     5
100
AcDbPolyline
 90
        2
 70
     0
 43
0.010444518156742
 10
23011.60008847518
 20
56792.41871384865
 10
23012.41858767056
 20
56792.41871384865
  0
LWPOLYLINE
  5
ACF2
330
1E
100
AcDbEntity
  8
GRID
 62
     7
100
AcDbPolyline
 90
        2
 70
     0
 43
0.010444518156742
 10
23012.41858767056
 20
56793.57640960438
 10
23011.60008847518
 20
56793.57640960438
  0
LWPOLYLINE
  5
ACF3
330
1E
100
AcDbEntity
  8
GRID
 62
     6
100
AcDbPolyline
 90
        2
 70
     0
 43
0.010444518156742
 10
23011.60008847518
 20
56792.93324529564
 10
23012.41858767056
 20
56792.93324529564
  0
TEXT
  5
ACFD
330
1E
100
AcDbEntity
  8
DIM
100
AcDbText
 10
23012.60874440077
 20
56793.53640960438
 30
0.0
 40
0.08
  1
TYPE A ISOLATION JOINT
 11
23012.60874440077
 21
56793.57640960438
 31
0.0
100
AcDbText
 73
     2
  0
TEXT
  5
ACFE
330
1E
100
AcDbEntity
  8
DIM
100
AcDbText
 10
23012.60874440077
 20
56792.63597957215
 30
0.0
 40
0.08
  1
TYPE D DUMMY CONTRACTION JOINT
 11
23012.60874440077
 21
56792.67597957216
 31
0.0
100
AcDbText
 73
     2
  0
TEXT
  5
ACFF
330
1E
100
AcDbEntity
  8
DIM
100
AcDbText
 10
23012.60874440077
 20
56792.37871384866
 30
0.0
 40
0.08
  1
TYPE E DOWELED CONSTRUCTION JOINT
 11
23012.60874440077
 21
56792.41871384865
 31
0.0
100
AcDbText
 73
     2
  0
TEXT
  5
AD00
330
1E
100
AcDbEntity
  8
DIM
100
AcDbText
 10
23012.60874440077
 20
56792.89324529564
 30
0.0
 40
0.08
  1
TYPE C DOWELED CONTRACTION JOINT
 11
23012.60874440077
 21
56792.93324529564
 31
0.0
100
AcDbText
 73
     2
  0
TEXT
  5
AD01
330
1E
100
AcDbEntity
  8
DIM
100
AcDbText
 10
23012.60874440077
 20
56792.12141080557
 30
0.0
 40
0.08
  1
EMBEDDED STEEL 0.05 PERCENT IN BOTH 
100
AcDbText
  0
LWPOLYLINE
  5
AD02
330
1E
100
AcDbEntity
  8
PAVEMENT
100
AcDbPolyline
 90
        2
 70
     1
 43
0.0626671089404518
 10
23011.92544478191
 20
56792.02969966463
 42
1.0
 10
23011.98811189085
 20
56792.02969966463
 42
1.0
  0
TEXT
  5
AD03
330
1E
100
AcDbEntity
  8
DIM
100
AcDbText
 10
23012.60874440077
 20
56791.99277794383
 30
0.0
 40
0.08
  1
DIRECTIONS WHEN LENGTH-TO-WIDTH
100
AcDbText
  0
LWPOLYLINE
  5
AD04
330
1E
100
AcDbEntity
  8
PAVEMENT
 62
    90
100
AcDbPolyline
 90
        2
 70
     0
 43
0.010444518156742
 10
23011.60008847518
 20
56793.57640960438
 10
23012.41858767056
 20
56793.57640960438
  0
TEXT
  5
AD05
330
1E
100
AcDbEntity
  8
DIM
100
AcDbText
 10
23012.60874440077
 20
56793.27910656128
 30
0.0
 40
0.08
  1
TYPE B HINGED OR TYPE C DOWELED
100
AcDbText
  0
LWPOLYLINE
  5
AD06
330
1E
100
AcDbEntity
  8
GRID
 62
     6
100
AcDbPolyline
 90
        2
 70
     0
 43
0.010444518156742
 10
23011.60008847518
 20
56793.31914388089
 10
23012.41858767056
 20
56793.31914388089
  0
TEXT
  5
AD0B
330
1E
100
AcDbEntity
  8
DIM
100
AcDbText
 10
23012.60874440077
 20
56793.15047369954
 30
0.0
 40
0.08
  1
CONTRACTION JOINT
100
AcDbText
  0
TEXT
  5
AD0C
330
1E
100
AcDbEntity
  8
DIM
100
AcDbText
 10
23012.60874440077
 20
56791.86414508208
 30
0.0
 40
0.08
  1
RATIO EXCEEDS 1.25 OR IN SLABS THAT 
100
AcDbText
  0
TEXT
  5
AD0D
330
1E
100
AcDbEntity
  8
DIM
100
AcDbText
 10
23012.60874440077
 20
56791.73551222032
 30
0.0
 40
0.08
  1
ARE NOT RECTANGULAR
100
AcDbText
  0
LWPOLYLINE
  5
F26E
330
1E
100
AcDbEntity
  8
island
100
AcDbPolyline
 90
        5
 70
     1
 43
0.00516692646288
 10
23016.07894181731
 20
56796.11140319178
 42
0.0047807601375015
 10
23016.00606859822
 20
56796.24045742547
 10
23015.79997297094
 20
56796.59742552315
 42
0.7673269879780824
 10
23015.55893256995
 20
56796.53283894237
 10
23015.55893256995
 20
56795.97002047894
 42
-0.1781550104968552
  0
LINE
  5
F368
330
1E
100
AcDbEntity
  8
DIM
100
AcDbLine
 10
23017.04442392803
 20
56799.38324967702
 30
0.0
 11
23017.04442392803
 21
56799.82260772602
 31
0.0
  0
LINE
  5
F369
330
1E
100
AcDbEntity
  8
DIM
100
AcDbLine
 10
23017.81946289747
 20
56799.38761512542
 30
0.0
 11
23017.81946289747
 21
56799.82138103501
 31
0.0
  0
LINE
  5
F36A
330
1E
100
AcDbEntity
  8
DIM
100
AcDbLine
 10
23017.0811452744
 20
56799.80152453662
 30
0.0
 11
23017.29226451078
 21
56799.80152453662
 31
0.0
  0
LINE
  5
F36B
330
1E
100
AcDbEntity
  8
DIM
100
AcDbLine
 10
23017.78274155109
 20
56799.80152453662
 30
0.0
 11
23017.57162231471
 21
56799.80152453662
 31
0.0
  0
SOLID
  5
F36C
330
1E
100
AcDbEntity
  8
DIM
100
AcDbTrace
 10
23017.19003824961
 20
56799.82702028121
 30
0.0
 11
23017.19003824961
 21
56799.77848217402
 31
0.0
 12
23017.04442392803
 22
56799.80275122762
 32
0.0
 13
23017.04442392803
 23
56799.80275122762
 33
0.0
  0
SOLID
  5
F36D
330
1E
100
AcDbEntity
  8
DIM
100
AcDbTrace
 10
23017.67384857589
 20
56799.82579359022
 30
0.0
 11
23017.67384857589
 21
56799.77725548303
 31
0.0
 12
23017.81946289747
 22
56799.80152453662
 32
0.0
 13
23017.81946289747
 23
56799.80152453662
 33
0.0
  0
MTEXT
  5
F36E
330
1E
100
AcDbEntity
  8
DIM
100
AcDbMText
 10
23017.43194341275
 20
56799.80152453662
 30
0.0
 40
0.08
 41
0.0
 46
0.0
 71
     5
 72
     1
  1
\A1;150'
 73
     1
 44
1.0
  0
LINE
  5
F36F
330
1E
100
AcDbEntity
  8
DIM
100
AcDbLine
 10
23015.17141308524
 20
56799.38231838137
 30
0.0
 11
23015.17141308524
 21
56799.82290312135
 31
0.0
  0
LINE
  5
F370
330
1E
100
AcDbEntity
  8
DIM
100
AcDbLine
 10
23015.55893256995
 20
56799.38761512542
 30
0.0
 11
23015.55893256995
 21
56799.82260772602
 31
0.0
  0
LINE
  5
F371
330
1E
100
AcDbEntity
  8
DIM
100
AcDbLine
 10
23015.41331824838
 20
56799.80275122762
 30
0.0
 11
23015.17814877128
 21
56799.80275122762
 31
0.0
  0
SOLID
  5
F372
330
1E
100
AcDbEntity
  8
DIM
100
AcDbTrace
 10
23015.31702740682
 20
56799.82731567656
 30
0.0
 11
23015.31702740682
 21
56799.77877756937
 31
0.0
 12
23015.17141308524
 22
56799.80304662295
 32
0.0
 13
23015.17141308524
 23
56799.80304662295
 33
0.0
  0
SOLID
  5
F373
330
1E
100
AcDbEntity
  8
DIM
100
AcDbTrace
 10
23015.41331824838
 20
56799.82702028121
 30
0.0
 11
23015.41331824838
 21
56799.77848217402
 31
0.0
 12
23015.55893256995
 22
56799.80275122762
 32
0.0
 13
23015.55893256995
 23
56799.80275122762
 33
0.0
  0
LINE
  5
F374
330
1E
100
AcDbEntity
  8
DIM
100
AcDbLine
 10
23015.17141308524
 20
56799.80304662295
 30
0.0
 11
23014.93624360815
 21
56799.80304662295
 31
0.0
  0
MTEXT
  5
F375
330
1E
100
AcDbEntity
  8
DIM
100
AcDbMText
 10
23014.82061494689
 20
56799.80304662295
 30
0.0
 40
0.08
 41
0.0
 46
0.0
 71
     5
 72
     1
  1
\A1;75'
 73
     1
 44
1.0
  0
LINE
  5
F376
330
1E
100
AcDbEntity
  8
DIM
100
AcDbLine
 10
23015.3651728276
 20
56799.38398646847
 30
0.0
 11
23015.3651728276
 21
56799.60427883846
 31
0.0
  0
LINE
  5
F377
330
1E
100
AcDbEntity
  8
DIM
100
AcDbLine
 10
23017.43194341275
 20
56799.38455519948
 30
0.0
 11
23017.43194341275
 21
56799.60484756948
 31
0.0
  0
SOLID
  5
F378
330
1E
100
AcDbEntity
  8
DIM
100
AcDbTrace
 10
23017.28632909117
 20
56799.60926012467
 30
0.0
 11
23017.28632909117
 21
56799.5607220175
 31
0.0
 12
23017.43194341275
 22
56799.58499107108
 32
0.0
 13
23017.43194341275
 23
56799.58499107108
 33
0.0
  0
SOLID
  5
F379
330
1E
100
AcDbEntity
  8
DIM
100
AcDbTrace
 10
23015.51078714918
 20
56799.60869139366
 30
0.0
 11
23015.51078714918
 21
56799.56015328647
 31
0.0
 12
23015.3651728276
 22
56799.58442234006
 32
0.0
 13
23015.3651728276
 23
56799.58442234006
 33
0.0
  0
LINE
  5
F37A
330
1E
100
AcDbEntity
  8
DIM
100
AcDbLine
 10
23015.46463240017
 20
56799.5845590079
 30
0.0
 11
23016.26224706123
 21
56799.5845590079
 31
0.0
  0
LINE
  5
F37B
330
1E
100
AcDbEntity
  8
DIM
100
AcDbLine
 10
23017.31155474023
 20
56799.5845590079
 30
0.0
 11
23016.54160486516
 21
56799.5845590079
 31
0.0
  0
MTEXT
  5
F37C
330
1E
100
AcDbEntity
  8
DIM
100
AcDbMText
 10
23016.40192596319
 20
56799.5845590079
 30
0.0
 40
0.08
 41
0.0
 46
0.0
 71
     5
 72
     1
  1
\A1;400'
 73
     1
 44
1.0
  0
LWPOLYLINE
  5
F4A0
330
1E
100
AcDbEntity
  8
GRID
  6
Continuous
100
AcDbPolyline
 90
        2
 70
     0
 43
0.00516692646288
 10
23017.82275213724
 20
56795.06546930305
 10
23016.85066418567
 20
56795.06546930305
  0
LWPOLYLINE
  5
F4A1
330
1E
100
AcDbEntity
  8
GRID
  6
Continuous
100
AcDbPolyline
 90
        2
 70
     0
 43
0.00516692646288
 10
23017.82275213724
 20
56794.65211518602
 10
23016.85066418567
 20
56794.65211518602
  0
LWPOLYLINE
  5
F4A2
330
1E
100
AcDbEntity
  8
GRID
  6
Continuous
100
AcDbPolyline
 90
        2
 70
     0
 43
0.00516692646288
 10
23017.82275213724
 20
56794.75545371529
 10
23016.85066418567
 20
56794.75545371529
  0
LWPOLYLINE
  5
F4A3
330
1E
100
AcDbEntity
  8
GRID
  6
Continuous
100
AcDbPolyline
 90
        2
 70
     0
 43
0.00516692646288
 10
23017.82275213724
 20
56794.85879224454
 10
23016.85066418567
 20
56794.85879224454
  0
LWPOLYLINE
  5
F4A4
330
1E
100
AcDbEntity
  8
GRID
  6
Continuous
100
AcDbPolyline
 90
        2
 70
     0
 43
0.00516692646288
 10
23017.82275213724
 20
56794.9621307738
 10
23016.85066418567
 20
56794.9621307738
  0
LWPOLYLINE
  5
F4A5
330
1E
100
AcDbEntity
  8
GRID
  6
Continuous
100
AcDbPolyline
 90
        2
 70
     0
 43
0.00516692646288
 10
23017.82275213724
 20
56793.82540695196
 10
23016.90563845502
 20
56793.82540695196
  0
LWPOLYLINE
  5
F4A6
330
1E
100
AcDbEntity
  8
GRID
  6
Continuous
100
AcDbPolyline
 90
        2
 70
     0
 43
0.00516692646288
 10
23017.82275213724
 20
56793.92874548122
 10
23016.88508565141
 20
56793.92874548122
  0
LWPOLYLINE
  5
F4A7
330
1E
100
AcDbEntity
  8
GRID
  6
Continuous
100
AcDbPolyline
 90
        2
 70
     0
 43
0.00516692646288
 10
23017.82275213724
 20
56794.03208401048
 10
23016.86306632025
 20
56794.03208401048
  0
LWPOLYLINE
  5
F4A8
330
1E
100
AcDbEntity
  8
GRID
  6
Continuous
100
AcDbPolyline
 90
        2
 70
     0
 43
0.00516692646288
 10
23017.82275213724
 20
56794.13542253974
 10
23016.85066418567
 20
56794.13542253974
  0
LWPOLYLINE
  5
F4A9
330
1E
100
AcDbEntity
  8
GRID
  6
Continuous
100
AcDbPolyline
 90
        2
 70
     0
 43
0.00516692646288
 10
23017.82275213724
 20
56794.23876106899
 10
23016.85066418567
 20
56794.23876106899
  0
LWPOLYLINE
  5
F4AA
330
1E
100
AcDbEntity
  8
GRID
  6
Continuous
100
AcDbPolyline
 90
        2
 70
     0
 43
0.00516692646288
 10
23017.82275213724
 20
56794.54877665676
 10
23016.85066418567
 20
56794.54877665676
  0
LWPOLYLINE
  5
F4AB
330
1E
100
AcDbEntity
  8
GRID
  6
Continuous
100
AcDbPolyline
 90
        2
 70
     0
 43
0.00516692646288
 10
23017.82275213724
 20
56794.44543812751
 10
23016.85066418567
 20
56794.44543812751
  0
LWPOLYLINE
  5
F4AC
330
1E
100
AcDbEntity
  8
GRID
  6
Continuous
100
AcDbPolyline
 90
        2
 70
     0
 43
0.00516692646288
 10
23017.82275213724
 20
56794.34209959826
 10
23016.85066418567
 20
56794.34209959826
  0
LWPOLYLINE
  5
F4AD
330
1E
100
AcDbEntity
  8
GRID
  6
Continuous
100
AcDbPolyline
 90
        2
 70
     0
 43
0.00516692646288
 10
23017.82275213724
 20
56792.17199048384
 10
23017.0340900751
 20
56792.17199048384
  0
LWPOLYLINE
  5
F4AE
330
1E
100
AcDbEntity
  8
GRID
  6
Continuous
100
AcDbPolyline
 90
        2
 70
     0
 43
0.00516692646288
 10
23017.82275213724
 20
56792.2753290131
 10
23017.0340900751
 20
56792.2753290131
  0
LWPOLYLINE
  5
F4AF
330
1E
100
AcDbEntity
  8
GRID
  6
Continuous
100
AcDbPolyline
 90
        2
 70
     0
 43
0.00516692646288
 10
23017.82275213724
 20
56792.37866754236
 10
23017.0340900751
 20
56792.37866754236
  0
LWPOLYLINE
  5
F4B0
330
1E
100
AcDbEntity
  8
GRID
  6
Continuous
100
AcDbPolyline
 90
        2
 70
     0
 43
0.00516692646288
 10
23017.82275213724
 20
56792.48200607161
 10
23017.0340900751
 20
56792.48200607161
  0
LWPOLYLINE
  5
F4B1
330
1E
100
AcDbEntity
  8
GRID
  6
Continuous
100
AcDbPolyline
 90
        2
 70
     0
 43
0.00516692646288
 10
23017.82275213724
 20
56792.58534460087
 10
23017.0340900751
 20
56792.58534460087
  0
LWPOLYLINE
  5
F4B2
330
1E
100
AcDbEntity
  8
GRID
  6
Continuous
100
AcDbPolyline
 90
        2
 70
     0
 43
0.00516692646288
 10
23017.82275213724
 20
56792.9986987179
 10
23017.01849531982
 20
56792.9986987179
  0
LWPOLYLINE
  5
F4B3
330
1E
100
AcDbEntity
  8
GRID
  6
Continuous
100
AcDbPolyline
 90
        2
 70
     0
 43
0.00516692646288
 10
23017.82275213724
 20
56792.89536018864
 10
23017.02627433198
 20
56792.89536018864
  0
LWPOLYLINE
  5
F4B4
330
1E
100
AcDbEntity
  8
GRID
  6
Continuous
100
AcDbPolyline
 90
        2
 70
     0
 43
0.00516692646288
 10
23017.82275213724
 20
56792.79202165939
 10
23017.03266570837
 20
56792.79202165939
  0
LWPOLYLINE
  5
F4B5
330
1E
100
AcDbEntity
  8
GRID
  6
Continuous
100
AcDbPolyline
 90
        2
 70
     0
 43
0.00516692646288
 10
23017.82275213724
 20
56792.68868313013
 10
23017.0340900751
 20
56792.68868313013
  0
LWPOLYLINE
  5
F4B6
330
1E
100
AcDbEntity
  8
GRID
  6
Continuous
100
AcDbPolyline
 90
        2
 70
     0
 43
0.00516692646288
 10
23017.82275213724
 20
56793.72206842271
 10
23016.9247365811
 20
56793.72206842271
  0
LWPOLYLINE
  5
F4B7
330
1E
100
AcDbEntity
  8
GRID
  6
Continuous
100
AcDbPolyline
 90
        2
 70
     0
 43
0.00516692646288
 10
23017.82275213724
 20
56793.61872989345
 10
23016.94754405685
 20
56793.61872989345
  0
LWPOLYLINE
  5
F4B8
330
1E
100
AcDbEntity
  8
GRID
  6
Continuous
100
AcDbPolyline
 90
        2
 70
     0
 43
0.00516692646288
 10
23017.82275213724
 20
56793.5153913642
 10
23016.95861146861
 20
56793.5153913642
  0
LWPOLYLINE
  5
F4B9
330
1E
100
AcDbEntity
  8
GRID
  6
Continuous
100
AcDbPolyline
 90
        2
 70
     0
 43
0.00516692646288
 10
23017.82275213724
 20
56793.41205283493
 10
23016.97340729226
 20
56793.41205283493
  0
LWPOLYLINE
  5
F4BA
330
1E
100
AcDbEntity
  8
GRID
  6
Continuous
100
AcDbPolyline
 90
        2
 70
     0
 43
0.00516692646288
 10
23017.82275213724
 20
56793.10203724717
 10
23017.0093244746
 20
56793.10203724717
  0
LWPOLYLINE
  5
F4BB
330
1E
100
AcDbEntity
  8
GRID
  6
Continuous
100
AcDbPolyline
 90
        2
 70
     0
 43
0.00516692646288
 10
23017.82275213724
 20
56793.20537577642
 10
23016.99875682627
 20
56793.20537577642
  0
LWPOLYLINE
  5
F4BC
330
1E
100
AcDbEntity
  8
GRID
  6
Continuous
100
AcDbPolyline
 90
        2
 70
     0
 43
0.00516692646288
 10
23017.82275213724
 20
56793.30871430567
 10
23016.98678661839
 20
56793.30871430567
  0
LWPOLYLINE
  5
F4BD
330
1E
100
AcDbEntity
  8
GRID
  6
Continuous
100
AcDbPolyline
 90
        2
 70
     0
 43
0.00516692646288
 10
23017.82275213724
 20
56792.06865195459
 10
23017.04771316781
 20
56792.06865195459
  0
LWPOLYLINE
  5
F4BE
330
1E
100
AcDbEntity
  8
GRID
  6
Continuous
100
AcDbPolyline
 90
        2
 70
     0
 43
0.00516692646288
 10
23017.82275213724
 20
56791.96531342533
 10
23017.04771316781
 20
56791.96531342533
  0
LWPOLYLINE
  5
F4BF
330
1E
100
AcDbEntity
  8
GRID
  6
Continuous
100
AcDbPolyline
 90
        2
 70
     0
 43
0.00516692646288
 10
23017.72587226606
 20
56791.86197489608
 10
23017.72587226606
 20
56799.3695308828
  0
LWPOLYLINE
  5
F4C0
330
1E
100
AcDbEntity
  8
GRID
  6
Continuous
 62
     5
100
AcDbPolyline
 90
        2
 70
     0
 43
0.00516692646288
 10
23017.62899239488
 20
56791.86197489608
 10
23017.62899239488
 20
56799.3695308828
  0
LWPOLYLINE
  5
F4C1
330
1E
100
AcDbEntity
  8
GRID
  6
Continuous
100
AcDbPolyline
 90
        2
 70
     0
 43
0.00516692646288
 10
23017.5321125237
 20
56791.86197489608
 10
23017.5321125237
 20
56799.3695308828
  0
LWPOLYLINE
  5
F4C2
330
1E
100
AcDbEntity
  8
GRID
  6
Continuous
 62
     5
100
AcDbPolyline
 90
        2
 70
     0
 43
0.00516692646288
 10
23017.43523265252
 20
56791.85166773094
 10
23017.43523265252
 20
56799.36174249716
  0
LWPOLYLINE
  5
F4C3
330
1E
100
AcDbEntity
  8
GRID
  6
Continuous
100
AcDbPolyline
 90
        2
 70
     0
 43
0.00516692646288
 10
23017.14459303898
 20
56791.85760944768
 10
23017.14459303898
 20
56799.3651654344
  0
LWPOLYLINE
  5
F4C4
330
1E
100
AcDbEntity
  8
GRID
  6
Continuous
 62
     5
100
AcDbPolyline
 90
        2
 70
     0
 43
0.00516692646288
 10
23017.24147291016
 20
56791.85760944768
 10
23017.24147291016
 20
56799.3651654344
  0
LWPOLYLINE
  5
F4C5
330
1E
100
AcDbEntity
  8
GRID
  6
Continuous
100
AcDbPolyline
 90
        2
 70
     0
 43
0.00516692646288
 10
23017.33835278134
 20
56791.85760944768
 10
23017.33835278134
 20
56799.3651654344
  0
LWPOLYLINE
  5
F5AC
330
1E
100
AcDbEntity
  8
GRID
  6
Continuous
100
AcDbPolyline
 90
        2
 70
     0
 43
0.00516692646288
 10
23017.82275213724
 20
56795.47882342008
 10
23016.85066418567
 20
56795.47882342008
  0
LWPOLYLINE
  5
F5AD
330
1E
100
AcDbEntity
  8
GRID
  6
Continuous
100
AcDbPolyline
 90
        2
 70
     0
 43
0.00516692646288
 10
23017.82275213724
 20
56795.37548489083
 10
23016.85066418567
 20
56795.37548489083
  0
LWPOLYLINE
  5
F5AE
330
1E
100
AcDbEntity
  8
GRID
  6
Continuous
100
AcDbPolyline
 90
        2
 70
     0
 43
0.00516692646288
 10
23017.82275213724
 20
56795.27214636157
 10
23016.85066418567
 20
56795.27214636157
  0
LWPOLYLINE
  5
F5AF
330
1E
100
AcDbEntity
  8
GRID
  6
Continuous
100
AcDbPolyline
 90
        2
 70
     0
 43
0.00516692646288
 10
23017.82275213724
 20
56795.16880783232
 10
23016.85066418567
 20
56795.16880783232
  0
LWPOLYLINE
  5
F5B0
330
1E
100
AcDbEntity
  8
GRID
  6
Continuous
100
AcDbPolyline
 90
        2
 70
     0
 43
0.00516692646288
 10
23017.82275213724
 20
56796.30553165414
 10
23017.04442392803
 20
56796.30553165414
  0
LWPOLYLINE
  5
F5B1
330
1E
100
AcDbEntity
  8
GRID
  6
Continuous
100
AcDbPolyline
 90
        2
 70
     0
 43
0.00516692646288
 10
23017.82275213724
 20
56796.20219312488
 10
23017.04442392803
 20
56796.20219312488
  0
LWPOLYLINE
  5
F5B2
330
1E
100
AcDbEntity
  8
GRID
  6
Continuous
100
AcDbPolyline
 90
        2
 70
     0
 43
0.00516692646288
 10
23017.82275213724
 20
56796.09885459563
 10
23017.04442392803
 20
56796.09885459563
  0
LWPOLYLINE
  5
F5B3
330
1E
100
AcDbEntity
  8
GRID
  6
Continuous
100
AcDbPolyline
 90
        2
 70
     0
 43
0.00516692646288
 10
23017.82275213724
 20
56795.99551606638
 10
23017.04442392803
 20
56795.99551606638
  0
LWPOLYLINE
  5
F5B4
330
1E
100
AcDbEntity
  8
GRID
  6
Continuous
100
AcDbPolyline
 90
        2
 70
     0
 43
0.00516692646288
 10
23017.82275213724
 20
56795.89217753711
 10
23017.04442392803
 20
56795.89217753711
  0
LWPOLYLINE
  5
F5B5
330
1E
100
AcDbEntity
  8
GRID
  6
Continuous
100
AcDbPolyline
 90
        2
 70
     0
 43
0.00516692646288
 10
23017.82275213724
 20
56795.58216194934
 10
23016.85066418567
 20
56795.58216194934
  0
LWPOLYLINE
  5
F5B6
330
1E
100
AcDbEntity
  8
GRID
  6
Continuous
100
AcDbPolyline
 90
        2
 70
     0
 43
0.00516692646288
 10
23017.82275213724
 20
56795.6855004786
 10
23017.03825972746
 20
56795.6855004786
  0
LWPOLYLINE
  5
F5B7
330
1E
100
AcDbEntity
  8
GRID
  6
Continuous
100
AcDbPolyline
 90
        2
 70
     0
 43
0.00516692646288
 10
23017.82275213724
 20
56795.78883900786
 10
23017.04442392803
 20
56795.78883900786
  0
LWPOLYLINE
  5
F5B8
330
1E
100
AcDbEntity
  8
GRID
  6
Continuous
100
AcDbPolyline
 90
        2
 70
     0
 43
0.00516692646288
 10
23017.82275213724
 20
56797.95894812226
 10
23017.04442392803
 20
56797.95894812226
  0
LWPOLYLINE
  5
F5B9
330
1E
100
AcDbEntity
  8
GRID
  6
Continuous
100
AcDbPolyline
 90
        2
 70
     0
 43
0.00516692646288
 10
23017.82275213724
 20
56797.85560959301
 10
23017.04442392803
 20
56797.85560959301
  0
LWPOLYLINE
  5
F5BA
330
1E
100
AcDbEntity
  8
GRID
  6
Continuous
100
AcDbPolyline
 90
        2
 70
     0
 43
0.00516692646288
 10
23017.82275213724
 20
56797.75227106375
 10
23017.04442392803
 20
56797.75227106375
  0
LWPOLYLINE
  5
F5BB
330
1E
100
AcDbEntity
  8
GRID
  6
Continuous
100
AcDbPolyline
 90
        2
 70
     0
 43
0.00516692646288
 10
23017.82275213724
 20
56797.6489325345
 10
23017.04442392803
 20
56797.6489325345
  0
LWPOLYLINE
  5
F5BC
330
1E
100
AcDbEntity
  8
GRID
  6
Continuous
100
AcDbPolyline
 90
        2
 70
     0
 43
0.00516692646288
 10
23017.82275213724
 20
56797.54559400524
 10
23017.04442392803
 20
56797.54559400524
  0
LWPOLYLINE
  5
F5BD
330
1E
100
AcDbEntity
  8
GRID
  6
Continuous
100
AcDbPolyline
 90
        2
 70
     0
 43
0.00516692646288
 10
23017.82275213724
 20
56797.1322398882
 10
23017.04442392803
 20
56797.1322398882
  0
LWPOLYLINE
  5
F5BE
330
1E
100
AcDbEntity
  8
GRID
  6
Continuous
100
AcDbPolyline
 90
        2
 70
     0
 43
0.00516692646288
 10
23017.82275213724
 20
56797.23557841747
 10
23017.04442392803
 20
56797.23557841747
  0
LWPOLYLINE
  5
F5BF
330
1E
100
AcDbEntity
  8
GRID
  6
Continuous
100
AcDbPolyline
 90
        2
 70
     0
 43
0.00516692646288
 10
23017.82275213724
 20
56797.33891694673
 10
23017.04442392803
 20
56797.33891694673
  0
LWPOLYLINE
  5
F5C0
330
1E
100
AcDbEntity
  8
GRID
  6
Continuous
100
AcDbPolyline
 90
        2
 70
     0
 43
0.00516692646288
 10
23017.82275213724
 20
56797.44225547598
 10
23017.04442392803
 20
56797.44225547598
  0
LWPOLYLINE
  5
F5C1
330
1E
100
AcDbEntity
  8
GRID
  6
Continuous
100
AcDbPolyline
 90
        2
 70
     0
 43
0.00516692646288
 10
23017.82275213724
 20
56796.40887018341
 10
23017.04442392803
 20
56796.40887018341
  0
LWPOLYLINE
  5
F5C2
330
1E
100
AcDbEntity
  8
GRID
  6
Continuous
100
AcDbPolyline
 90
        2
 70
     0
 43
0.00516692646288
 10
23017.82275213724
 20
56796.51220871266
 10
23017.04442392803
 20
56796.51220871266
  0
LWPOLYLINE
  5
F5C3
330
1E
100
AcDbEntity
  8
GRID
  6
Continuous
100
AcDbPolyline
 90
        2
 70
     0
 43
0.00516692646288
 10
23017.82275213724
 20
56796.61554724192
 10
23017.04442392803
 20
56796.61554724192
  0
LWPOLYLINE
  5
F5C4
330
1E
100
AcDbEntity
  8
GRID
  6
Continuous
100
AcDbPolyline
 90
        2
 70
     0
 43
0.00516692646288
 10
23017.82275213724
 20
56796.71888577117
 10
23017.04442392803
 20
56796.71888577117
  0
LWPOLYLINE
  5
F5C5
330
1E
100
AcDbEntity
  8
GRID
  6
Continuous
100
AcDbPolyline
 90
        2
 70
     0
 43
0.00516692646288
 10
23017.82275213724
 20
56797.02890135895
 10
23017.04442392803
 20
56797.02890135895
  0
LWPOLYLINE
  5
F5C6
330
1E
100
AcDbEntity
  8
GRID
  6
Continuous
100
AcDbPolyline
 90
        2
 70
     0
 43
0.00516692646288
 10
23017.82275213724
 20
56796.9255628297
 10
23017.04442392803
 20
56796.9255628297
  0
LWPOLYLINE
  5
F5C7
330
1E
100
AcDbEntity
  8
GRID
  6
Continuous
100
AcDbPolyline
 90
        2
 70
     0
 43
0.00516692646288
 10
23017.82275213724
 20
56796.82222430044
 10
23017.04442392803
 20
56796.82222430044
  0
LWPOLYLINE
  5
F5C8
330
1E
100
AcDbEntity
  8
GRID
  6
Continuous
100
AcDbPolyline
 90
        2
 70
     0
 43
0.00516692646288
 10
23017.82275213724
 20
56798.06228665153
 10
23017.04442392803
 20
56798.06228665153
  0
LWPOLYLINE
  5
F5C9
330
1E
100
AcDbEntity
  8
GRID
  6
Continuous
100
AcDbPolyline
 90
        2
 70
     0
 43
0.00516692646288
 10
23017.82275213724
 20
56798.16562518078
 10
23017.04442392803
 20
56798.16562518078
  0
LWPOLYLINE
  5
F5CA
330
1E
100
AcDbEntity
  8
GRID
  6
Continuous
100
AcDbPolyline
 90
        2
 70
     0
 43
0.00516692646288
 10
23017.82275213724
 20
56798.37230223929
 10
23017.04442392803
 20
56798.37230223929
  0
LWPOLYLINE
  5
F5CB
330
1E
100
AcDbEntity
  8
GRID
  6
Continuous
100
AcDbPolyline
 90
        2
 70
     0
 43
0.00516692646288
 10
23017.82275213724
 20
56798.47564076856
 10
23017.04442392803
 20
56798.47564076856
  0
LWPOLYLINE
  5
F5CC
330
1E
100
AcDbEntity
  8
GRID
  6
Continuous
100
AcDbPolyline
 90
        2
 70
     0
 43
0.00516692646288
 10
23017.82275213724
 20
56798.57897929782
 10
23017.04442392803
 20
56798.57897929782
  0
LWPOLYLINE
  5
F5CD
330
1E
100
AcDbEntity
  8
GRID
  6
Continuous
100
AcDbPolyline
 90
        2
 70
     0
 43
0.00516692646288
 10
23017.82275213724
 20
56798.68231782707
 10
23017.04771316781
 20
56798.68231782707
  0
LWPOLYLINE
  5
F5CE
330
1E
100
AcDbEntity
  8
GRID
  6
Continuous
100
AcDbPolyline
 90
        2
 70
     0
 43
0.00516692646288
 10
23017.82275213724
 20
56798.78565635632
 10
23017.04771316781
 20
56798.78565635632
  0
LWPOLYLINE
  5
F5CF
330
1E
100
AcDbEntity
  8
GRID
  6
Continuous
100
AcDbPolyline
 90
        2
 70
     0
 43
0.00516692646288
 10
23017.82275213724
 20
56799.19901047336
 10
23017.04771316781
 20
56799.19901047336
  0
LWPOLYLINE
  5
F5D0
330
1E
100
AcDbEntity
  8
GRID
  6
Continuous
100
AcDbPolyline
 90
        2
 70
     0
 43
0.00516692646288
 10
23017.82275213724
 20
56799.0956719441
 10
23017.04771316781
 20
56799.0956719441
  0
LWPOLYLINE
  5
F5D1
330
1E
100
AcDbEntity
  8
GRID
  6
Continuous
100
AcDbPolyline
 90
        2
 70
     0
 43
0.00516692646288
 10
23017.82275213724
 20
56798.99233341485
 10
23017.04771316781
 20
56798.99233341485
  0
LWPOLYLINE
  5
F5D2
330
1E
100
AcDbEntity
  8
GRID
  6
Continuous
100
AcDbPolyline
 90
        2
 70
     0
 43
0.00516692646288
 10
23017.82275213724
 20
56798.88899488559
 10
23017.04771316781
 20
56798.88899488559
  0
LWPOLYLINE
  5
F5D3
330
1E
100
AcDbEntity
  8
GRID
  6
Continuous
100
AcDbPolyline
 90
        2
 70
     0
 43
0.00516692646288
 10
23017.82275213724
 20
56799.30234900262
 10
23017.04771316781
 20
56799.30234900262
  0
LWPOLYLINE
  5
F5D4
330
1E
100
AcDbEntity
  8
GRID
  6
Continuous
100
AcDbPolyline
 90
        2
 70
     0
 43
0.00516692646288
 10
23017.41528771183
 20
56799.40568753187
 10
23017.38687936903
 20
56799.40568753187
  0
LWPOLYLINE
  5
F5D6
330
1E
100
AcDbEntity
  8
GRID
  6
Continuous
100
AcDbPolyline
 90
        2
 70
     0
 43
0.00516692646288
 10
23017.82275213724
 20
56798.26896371004
 10
23017.04442392803
 20
56798.26896371004
  0
LWPOLYLINE
  5
F5D8
330
1E
100
AcDbEntity
  8
GRID
  6
Continuous
100
AcDbPolyline
 90
        2
 70
     0
 43
0.00516692646288
 10
23015.7004099266
 20
56795.06546930305
 10
23015.17141308524
 20
56795.06546930305
  0
LWPOLYLINE
  5
F5D9
330
1E
100
AcDbEntity
  8
GRID
  6
Continuous
100
AcDbPolyline
 90
        2
 70
     0
 43
0.00516692646288
 10
23015.61203454867
 20
56794.65211518602
 10
23015.17141308524
 20
56794.65211518602
  0
LWPOLYLINE
  5
F5DA
330
1E
100
AcDbEntity
  8
GRID
  6
Continuous
100
AcDbPolyline
 90
        2
 70
     0
 43
0.00516692646288
 10
23015.61699237355
 20
56794.75545371529
 10
23015.17141308524
 20
56794.75545371529
  0
LWPOLYLINE
  5
F5DB
330
1E
100
AcDbEntity
  8
GRID
  6
Continuous
100
AcDbPolyline
 90
        2
 70
     0
 43
0.00516692646288
 10
23015.64479822456
 20
56794.85879224454
 10
23015.17141308524
 20
56794.85879224454
  0
LWPOLYLINE
  5
F5DC
330
1E
100
AcDbEntity
  8
GRID
  6
Continuous
100
AcDbPolyline
 90
        2
 70
     0
 43
0.00516692646288
 10
23015.67260407558
 20
56794.9621307738
 10
23015.17141308524
 20
56794.9621307738
  0
LWPOLYLINE
  5
F5DD
330
1E
100
AcDbEntity
  8
GRID
  6
Continuous
100
AcDbPolyline
 90
        2
 70
     0
 43
0.00516692646288
 10
23015.60833461198
 20
56794.54877665676
 10
23015.17141308524
 20
56794.54877665676
  0
LWPOLYLINE
  5
F5DE
330
1E
100
AcDbEntity
  8
GRID
  6
Continuous
100
AcDbPolyline
 90
        2
 70
     0
 43
0.00516692646288
 10
23015.60463467529
 20
56794.44543812751
 10
23015.17141308524
 20
56794.44543812751
  0
LWPOLYLINE
  5
F5DF
330
1E
100
AcDbEntity
  8
GRID
  6
Continuous
100
AcDbPolyline
 90
        2
 70
     0
 43
0.00516692646288
 10
23015.60093473861
 20
56794.34209959826
 10
23015.17141308524
 20
56794.34209959826
  0
LWPOLYLINE
  5
F5E0
330
1E
100
AcDbEntity
  8
GRID
  6
Continuous
 62
     5
100
AcDbPolyline
 90
        2
 70
     0
 43
0.00516692646288
 10
23015.36536521926
 20
56791.8585109903
 10
23015.36536521926
 20
56799.36547832595
  0
LWPOLYLINE
  5
F5E1
330
1E
100
AcDbEntity
  8
GRID
  6
Continuous
100
AcDbPolyline
 90
        2
 70
     0
 43
0.00516692646288
 10
23015.75249992065
 20
56795.47882342008
 10
23015.17141308524
 20
56795.47882342008
  0
LWPOLYLINE
  5
F5E2
330
1E
100
AcDbEntity
  8
GRID
  6
Continuous
100
AcDbPolyline
 90
        2
 70
     0
 43
0.00516692646288
 10
23015.75249992065
 20
56795.37548489083
 10
23015.17141308524
 20
56795.37548489083
  0
LWPOLYLINE
  5
F5E3
330
1E
100
AcDbEntity
  8
GRID
  6
Continuous
100
AcDbPolyline
 90
        2
 70
     0
 43
0.00516692646288
 10
23015.75249992065
 20
56795.27214636157
 10
23015.17141308524
 20
56795.27214636157
  0
LWPOLYLINE
  5
F5E4
330
1E
100
AcDbEntity
  8
GRID
  6
Continuous
100
AcDbPolyline
 90
        2
 70
     0
 43
0.00516692646288
 10
23015.72821577762
 20
56795.16880783232
 10
23015.17141308524
 20
56795.16880783232
  0
LWPOLYLINE
  5
F5E5
330
1E
100
AcDbEntity
  8
GRID
  6
Continuous
100
AcDbPolyline
 90
        2
 70
     0
 43
0.00516692646288
 10
23015.75249992065
 20
56796.30553165414
 10
23015.17141308524
 20
56796.30553165414
  0
LWPOLYLINE
  5
F5E6
330
1E
100
AcDbEntity
  8
GRID
  6
Continuous
100
AcDbPolyline
 90
        2
 70
     0
 43
0.00516692646288
 10
23015.75249992065
 20
56796.20219312488
 10
23015.17141308524
 20
56796.20219312488
  0
LWPOLYLINE
  5
F5E7
330
1E
100
AcDbEntity
  8
GRID
  6
Continuous
100
AcDbPolyline
 90
        2
 70
     0
 43
0.00516692646288
 10
23015.75249992065
 20
56796.09885459563
 10
23015.17141308524
 20
56796.09885459563
  0
LWPOLYLINE
  5
F5E9
330
1E
100
AcDbEntity
  8
GRID
  6
Continuous
100
AcDbPolyline
 90
        2
 70
     0
 43
0.00516692646288
 10
23015.75249992065
 20
56795.89217753711
 10
23015.17141308524
 20
56795.89217753711
  0
LWPOLYLINE
  5
F5EA
330
1E
100
AcDbEntity
  8
GRID
  6
Continuous
100
AcDbPolyline
 90
        2
 70
     0
 43
0.00516692646288
 10
23015.75249992065
 20
56795.58216194934
 10
23015.17141308524
 20
56795.58216194934
  0
LWPOLYLINE
  5
F5EB
330
1E
100
AcDbEntity
  8
GRID
  6
Continuous
100
AcDbPolyline
 90
        2
 70
     0
 43
0.00516692646288
 10
23015.75249992065
 20
56795.6855004786
 10
23015.17141308524
 20
56795.6855004786
  0
LWPOLYLINE
  5
F5EC
330
1E
100
AcDbEntity
  8
GRID
  6
Continuous
100
AcDbPolyline
 90
        2
 70
     0
 43
0.00516692646288
 10
23015.75249992065
 20
56795.78883900786
 10
23015.17141308524
 20
56795.78883900786
  0
LWPOLYLINE
  5
F5ED
330
1E
100
AcDbEntity
  8
GRID
  6
Continuous
100
AcDbPolyline
 90
        2
 70
     0
 43
0.00516692646288
 10
23015.67057739432
 20
56797.95894812226
 10
23015.17141308524
 20
56797.95894812226
  0
LWPOLYLINE
  5
F5EE
330
1E
100
AcDbEntity
  8
GRID
  6
Continuous
100
AcDbPolyline
 90
        2
 70
     0
 43
0.00516692646288
 10
23015.69499344453
 20
56797.85560959301
 10
23015.17141308524
 20
56797.85560959301
  0
LWPOLYLINE
  5
F5EF
330
1E
100
AcDbEntity
  8
GRID
  6
Continuous
100
AcDbPolyline
 90
        2
 70
     0
 43
0.00516692646288
 10
23015.72264821627
 20
56797.75227106375
 10
23015.17141308524
 20
56797.75227106375
  0
LWPOLYLINE
  5
F5F0
330
1E
100
AcDbEntity
  8
GRID
  6
Continuous
100
AcDbPolyline
 90
        2
 70
     0
 43
0.00516692646288
 10
23015.75361962114
 20
56797.6489325345
 10
23015.17141308524
 20
56797.6489325345
  0
LWPOLYLINE
  5
F5F1
330
1E
100
AcDbEntity
  8
GRID
  6
Continuous
100
AcDbPolyline
 90
        2
 70
     0
 43
0.00516692646288
 10
23015.75249992065
 20
56797.54559400524
 10
23015.17141308524
 20
56797.54559400524
  0
LWPOLYLINE
  5
F5F2
330
1E
100
AcDbEntity
  8
GRID
  6
Continuous
100
AcDbPolyline
 90
        2
 70
     0
 43
0.00516692646288
 10
23015.75249992065
 20
56797.1322398882
 10
23015.55912496162
 20
56797.1322398882
  0
LWPOLYLINE
  5
F5F3
330
1E
100
AcDbEntity
  8
GRID
  6
Continuous
100
AcDbPolyline
 90
        2
 70
     0
 43
0.00516692646288
 10
23015.75249992065
 20
56797.23557841747
 10
23015.17141308524
 20
56797.23557841747
  0
LWPOLYLINE
  5
F5F4
330
1E
100
AcDbEntity
  8
GRID
  6
Continuous
100
AcDbPolyline
 90
        2
 70
     0
 43
0.00516692646288
 10
23015.75249992065
 20
56797.33891694673
 10
23015.17141308524
 20
56797.33891694673
  0
LWPOLYLINE
  5
F5F5
330
1E
100
AcDbEntity
  8
GRID
  6
Continuous
100
AcDbPolyline
 90
        2
 70
     0
 43
0.00516692646288
 10
23015.75249992065
 20
56797.44225547598
 10
23015.17141308524
 20
56797.44225547598
  0
LWPOLYLINE
  5
F5F6
330
1E
100
AcDbEntity
  8
GRID
  6
Continuous
100
AcDbPolyline
 90
        2
 70
     0
 43
0.00516692646288
 10
23015.75249992065
 20
56796.40887018341
 10
23015.17141308524
 20
56796.40887018341
  0
LWPOLYLINE
  5
F5F7
330
1E
100
AcDbEntity
  8
GRID
  6
Continuous
100
AcDbPolyline
 90
        2
 70
     0
 43
0.00516692646288
 10
23015.75249992065
 20
56796.51220871266
 10
23015.17141308524
 20
56796.51220871266
  0
LWPOLYLINE
  5
F5F8
330
1E
100
AcDbEntity
  8
GRID
  6
Continuous
100
AcDbPolyline
 90
        2
 70
     0
 43
0.00516692646288
 10
23015.75249992065
 20
56796.61554724192
 10
23015.17141308524
 20
56796.61554724192
  0
LWPOLYLINE
  5
F5F9
330
1E
100
AcDbEntity
  8
GRID
  6
Continuous
100
AcDbPolyline
 90
        2
 70
     0
 43
0.00516692646288
 10
23015.75249992065
 20
56796.71888577117
 10
23015.17141308524
 20
56796.71888577117
  0
LWPOLYLINE
  5
F5FA
330
1E
100
AcDbEntity
  8
GRID
  6
Continuous
100
AcDbPolyline
 90
        2
 70
     0
 43
0.00516692646288
 10
23015.75249992065
 20
56797.02890135895
 10
23015.17141308524
 20
56797.02890135895
  0
LWPOLYLINE
  5
F5FB
330
1E
100
AcDbEntity
  8
GRID
  6
Continuous
100
AcDbPolyline
 90
        2
 70
     0
 43
0.00516692646288
 10
23015.75249992065
 20
56796.9255628297
 10
23015.17141308524
 20
56796.9255628297
  0
LWPOLYLINE
  5
F5FC
330
1E
100
AcDbEntity
  8
GRID
  6
Continuous
100
AcDbPolyline
 90
        2
 70
     0
 43
0.00516692646288
 10
23015.75249992065
 20
56796.82222430044
 10
23015.17141308524
 20
56796.82222430044
  0
LWPOLYLINE
  5
F5FD
330
1E
100
AcDbEntity
  8
GRID
  6
Continuous
100
AcDbPolyline
 90
        2
 70
     0
 43
0.00516692646288
 10
23015.64933329609
 20
56798.06228665153
 10
23015.17141308524
 20
56798.06228665153
  0
LWPOLYLINE
  5
F5FE
330
1E
100
AcDbEntity
  8
GRID
  6
Continuous
100
AcDbPolyline
 90
        2
 70
     0
 43
0.00516692646288
 10
23015.63120454111
 20
56798.16562518078
 10
23015.17141308524
 20
56798.16562518078
  0
LWPOLYLINE
  5
F5FF
330
1E
100
AcDbEntity
  8
GRID
  6
Continuous
100
AcDbPolyline
 90
        2
 70
     0
 43
0.00516692646288
 10
23015.60411279778
 20
56798.37230223929
 10
23015.17141308524
 20
56798.37230223929
  0
LWPOLYLINE
  5
F600
330
1E
100
AcDbEntity
  8
GRID
  6
Continuous
100
AcDbPolyline
 90
        2
 70
     0
 43
0.00516692646288
 10
23015.59508097073
 20
56798.47564076856
 10
23015.17141308524
 20
56798.47564076856
  0
LWPOLYLINE
  5
F601
330
1E
100
AcDbEntity
  8
GRID
  6
Continuous
100
AcDbPolyline
 90
        2
 70
     0
 43
0.00516692646288
 10
23015.58895471719
 20
56798.57897929782
 10
23015.17141308524
 20
56798.57897929782
  0
LWPOLYLINE
  5
F602
330
1E
100
AcDbEntity
  8
GRID
  6
Continuous
100
AcDbPolyline
 90
        2
 70
     0
 43
0.00516692646288
 10
23015.58001994569
 20
56798.68231782707
 10
23015.17141308524
 20
56798.68231782707
  0
LWPOLYLINE
  5
F603
330
1E
100
AcDbEntity
  8
GRID
  6
Continuous
100
AcDbPolyline
 90
        2
 70
     0
 43
0.00516692646288
 10
23015.58001994569
 20
56798.78565635632
 10
23015.17141308524
 20
56798.78565635632
  0
LWPOLYLINE
  5
F604
330
1E
100
AcDbEntity
  8
GRID
  6
Continuous
100
AcDbPolyline
 90
        2
 70
     0
 43
0.00516692646288
 10
23015.55893256995
 20
56799.19901047336
 10
23015.17141308524
 20
56799.19901047336
  0
LWPOLYLINE
  5
F605
330
1E
100
AcDbEntity
  8
GRID
  6
Continuous
100
AcDbPolyline
 90
        2
 70
     0
 43
0.00516692646288
 10
23015.56926642288
 20
56799.0956719441
 10
23015.17141308524
 20
56799.0956719441
  0
LWPOLYLINE
  5
F606
330
1E
100
AcDbEntity
  8
GRID
  6
Continuous
100
AcDbPolyline
 90
        2
 70
     0
 43
0.00516692646288
 10
23015.56806787962
 20
56798.99233341485
 10
23015.17141308524
 20
56798.99233341485
  0
LWPOLYLINE
  5
F607
330
1E
100
AcDbEntity
  8
GRID
  6
Continuous
100
AcDbPolyline
 90
        2
 70
     0
 43
0.00516692646288
 10
23015.57328958901
 20
56798.88899488559
 10
23015.17141308524
 20
56798.88899488559
  0
LWPOLYLINE
  5
F608
330
1E
100
AcDbEntity
  8
GRID
  6
Continuous
100
AcDbPolyline
 90
        2
 70
     0
 43
0.00516692646288
 10
23015.56193059251
 20
56799.30234900262
 10
23015.41689341091
 20
56799.30234900262
  0
LWPOLYLINE
  5
F609
330
1E
100
AcDbEntity
  8
GRID
  6
Continuous
100
AcDbPolyline
 90
        2
 70
     0
 43
0.00516692646288
 10
23015.61614388351
 20
56798.26896371004
 10
23015.17141308524
 20
56798.26896371004
  0
LWPOLYLINE
  5
F60A
330
1E
100
AcDbEntity
  8
GRID
  6
Continuous
100
AcDbPolyline
 90
        2
 70
     0
 43
0.00516692646288
 10
23015.57503518179
 20
56793.61872989345
 10
23015.17141308524
 20
56793.61872989345
  0
LWPOLYLINE
  5
F60B
330
1E
100
AcDbEntity
  8
GRID
  6
Continuous
100
AcDbPolyline
 90
        2
 70
     0
 43
0.00516692646288
 10
23015.58983492855
 20
56794.03208401048
 10
23015.17141308524
 20
56794.03208401048
  0
LWPOLYLINE
  5
F60C
330
1E
100
AcDbEntity
  8
GRID
  6
Continuous
100
AcDbPolyline
 90
        2
 70
     0
 43
0.00516692646288
 10
23015.58613499186
 20
56793.92874548122
 10
23015.17141308524
 20
56793.92874548122
  0
LWPOLYLINE
  5
F60D
330
1E
100
AcDbEntity
  8
GRID
  6
Continuous
100
AcDbPolyline
 90
        2
 70
     0
 43
0.00516692646288
 10
23015.58243505517
 20
56793.82540695196
 10
23015.17141308524
 20
56793.82540695196
  0
LWPOLYLINE
  5
F60E
330
1E
100
AcDbEntity
  8
GRID
  6
Continuous
100
AcDbPolyline
 90
        2
 70
     0
 43
0.00516692646288
 10
23015.58001994569
 20
56793.72206842271
 10
23015.17141308524
 20
56793.72206842271
  0
LWPOLYLINE
  5
F60F
330
1E
100
AcDbEntity
  8
GRID
  6
Continuous
100
AcDbPolyline
 90
        2
 70
     0
 43
0.00516692646288
 10
23015.59353486523
 20
56794.13542253974
 10
23015.17141308524
 20
56794.13542253974
  0
LWPOLYLINE
  5
F610
330
1E
100
AcDbEntity
  8
GRID
  6
Continuous
100
AcDbPolyline
 90
        2
 70
     0
 43
0.00516692646288
 10
23015.59723480192
 20
56794.23876106899
 10
23015.17141308524
 20
56794.23876106899
  0
LWPOLYLINE
  5
F611
330
1E
100
AcDbEntity
  8
GRID
  6
Continuous
100
AcDbPolyline
 90
        2
 70
     0
 43
0.00516692646288
 10
23015.56926642288
 20
56793.20537577642
 10
23015.17141308524
 20
56793.20537577642
  0
LWPOLYLINE
  5
F612
330
1E
100
AcDbEntity
  8
GRID
  6
Continuous
100
AcDbPolyline
 90
        2
 70
     0
 43
0.00516692646288
 10
23015.56926642288
 20
56793.30871430567
 10
23015.17141308524
 20
56793.30871430567
  0
LWPOLYLINE
  5
F613
330
1E
100
AcDbEntity
  8
GRID
  6
Continuous
100
AcDbPolyline
 90
        2
 70
     0
 43
0.00516692646288
 10
23015.56926642288
 20
56793.41205283493
 10
23015.17141308524
 20
56793.41205283493
  0
LWPOLYLINE
  5
F614
330
1E
100
AcDbEntity
  8
GRID
  6
Continuous
100
AcDbPolyline
 90
        2
 70
     0
 43
0.00516692646288
 10
23015.5713352451
 20
56793.5153913642
 10
23015.17141308524
 20
56793.5153913642
  0
LWPOLYLINE
  5
F615
330
1E
100
AcDbEntity
  8
GRID
  6
Continuous
100
AcDbPolyline
 90
        2
 70
     0
 43
0.00516692646288
 10
23015.56926642288
 20
56793.10203724717
 10
23015.17141308524
 20
56793.10203724717
  0
LWPOLYLINE
  5
F616
330
1E
100
AcDbEntity
  8
GRID
  6
Continuous
100
AcDbPolyline
 90
        2
 70
     0
 43
0.00516692646288
 10
23015.56926642288
 20
56792.9986987179
 10
23015.17141308524
 20
56792.9986987179
  0
LWPOLYLINE
  5
F617
330
1E
100
AcDbEntity
  8
GRID
  6
Continuous
100
AcDbPolyline
 90
        2
 70
     0
 43
0.00516692646288
 10
23015.55893446364
 20
56792.89536018864
 10
23015.17141308524
 20
56792.89536018864
  0
LWPOLYLINE
  5
F618
330
1E
100
AcDbEntity
  8
GRID
  6
Continuous
100
AcDbPolyline
 90
        2
 70
     0
 43
0.00516692646288
 10
23015.55893946985
 20
56792.17199048384
 10
23015.17141308524
 20
56792.17199048384
  0
LWPOLYLINE
  5
F619
330
1E
100
AcDbEntity
  8
GRID
  6
Continuous
100
AcDbPolyline
 90
        2
 70
     0
 43
0.00516692646288
 10
23015.46224509043
 20
56791.86197489608
 10
23015.36379308727
 20
56791.86197489608
  0
LWPOLYLINE
  5
F61A
330
1E
100
AcDbEntity
  8
GRID
  6
Continuous
100
AcDbPolyline
 90
        2
 70
     0
 43
0.00516692646288
 10
23015.5589409002
 20
56791.96531342533
 10
23015.17141308524
 20
56791.96531342533
  0
LWPOLYLINE
  5
F61B
330
1E
100
AcDbEntity
  8
GRID
  6
Continuous
100
AcDbPolyline
 90
        2
 70
     0
 43
0.00516692646288
 10
23015.55894018503
 20
56792.06865195459
 10
23015.17141308524
 20
56792.06865195459
  0
LWPOLYLINE
  5
F61C
330
1E
100
AcDbEntity
  8
GRID
  6
Continuous
100
AcDbPolyline
 90
        2
 70
     0
 43
0.00516692646288
 10
23015.55893660916
 20
56792.58534460087
 10
23015.17141308524
 20
56792.58534460087
  0
LWPOLYLINE
  5
F61D
330
1E
100
AcDbEntity
  8
GRID
  6
Continuous
100
AcDbPolyline
 90
        2
 70
     0
 43
0.00516692646288
 10
23015.55893732433
 20
56792.48200607161
 10
23015.17141308524
 20
56792.48200607161
  0
LWPOLYLINE
  5
F61E
330
1E
100
AcDbEntity
  8
GRID
  6
Continuous
100
AcDbPolyline
 90
        2
 70
     0
 43
0.00516692646288
 10
23015.55893803951
 20
56792.37866754236
 10
23015.17141308524
 20
56792.37866754236
  0
LWPOLYLINE
  5
F61F
330
1E
100
AcDbEntity
  8
GRID
  6
Continuous
100
AcDbPolyline
 90
        2
 70
     0
 43
0.00516692646288
 10
23015.55893875468
 20
56792.2753290131
 10
23015.17141308524
 20
56792.2753290131
  0
LWPOLYLINE
  5
F620
330
1E
100
AcDbEntity
  8
GRID
  6
Continuous
100
AcDbPolyline
 90
        2
 70
     0
 43
0.00516692646288
 10
23015.55893589399
 20
56792.68868313013
 10
23015.17141308524
 20
56792.68868313013
  0
LWPOLYLINE
  5
F621
330
1E
100
AcDbEntity
  8
GRID
  6
Continuous
100
AcDbPolyline
 90
        2
 70
     0
 43
0.00516692646288
 10
23015.55893517881
 20
56792.79202165939
 10
23015.17141308524
 20
56792.79202165939
  0
LWPOLYLINE
  5
F622
330
1E
100
AcDbEntity
  8
GRID
  6
Continuous
100
AcDbPolyline
 90
        2
 70
     0
 43
0.00516692646288
 10
23015.26848534808
 20
56791.85732501315
 10
23015.26848534808
 20
56799.36423413875
  0
LWPOLYLINE
  5
F623
330
1E
100
AcDbEntity
  8
GRID
  6
Continuous
100
AcDbPolyline
 90
        2
 70
     0
 43
0.00516692646288
 10
23015.46224509043
 20
56791.86149048901
 10
23015.46224509043
 20
56799.3683611597
  0
LWPOLYLINE
  5
F624
330
1E
100
AcDbEntity
  8
GRID
  6
Continuous
100
AcDbPolyline
 90
        2
 70
     0
 43
0.00516692646288
 10
23015.28395494697
 20
56791.86197489608
 10
23015.17141308524
 20
56791.86197489608
  0
LWPOLYLINE
  5
F625
330
1E
100
AcDbEntity
  8
GRID
  6
Continuous
100
AcDbPolyline
 90
        2
 70
     0
 43
0.00516692646288
 10
23015.39401716181
 20
56799.30234900262
 10
23015.17141308524
 20
56799.30234900262
  0
LWPOLYLINE
  5
F628
330
1E
100
AcDbEntity
  8
PAVEMENT
 48
0.1
100
AcDbPolyline
 90
       43
 70
     0
 43
0.00516692646288
 10
23015.55893256995
 20
56799.19641047336
 10
23015.55893256995
 20
56799.3695308828
 10
23015.46304871373
 20
56799.3695308828
 10
23015.40311770543
 20
56799.28229761658
 10
23015.32729887021
 20
56799.44935057485
 10
23015.281478198
 20
56799.36423413875
 10
23015.17141308524
 20
56799.36423413875
 10
23015.17141308524
 20
56791.85732501315
 10
23015.28145177872
 20
56791.85732501315
 10
23015.32727245093
 20
56791.94244144927
 10
23015.40309128615
 20
56791.775388491
 10
23015.46302229444
 20
56791.86262175721
 10
23015.5589416109
 20
56791.86262175721
 10
23015.55893392715
 20
56792.97288067221
 10
23015.56207665604
 20
56792.97288067221
 10
23015.56926642288
 20
56792.97288067221
 10
23015.56926642288
 20
56792.98007043905
 10
23015.56926642288
 20
56793.45760955221
 10
23015.61554141628
 20
56794.7500613326
 10
23015.78255263181
 20
56795.37074700663
 42
-0.5347757522902752
 10
23016.27110625978
 20
56795.53579243688
 10
23016.41486358525
 20
56795.42505501571
 42
-0.0887811675429733
 10
23017.0340900751
 20
56792.76535754943
 10
23017.0340900751
 20
56792.12499528646
 10
23017.04442392803
 20
56792.12499528646
 10
23017.04442392803
 20
56791.85760944768
 10
23017.36293288138
 20
56791.85760944768
 10
23017.40069717166
 20
56791.92776035655
 10
23017.46318522267
 20
56791.79007934699
 10
23017.51257891083
 20
56791.86197489608
 10
23017.81946289747
 20
56791.86197489608
 10
23017.81946289747
 20
56799.3695308828
 10
23017.51257891083
 20
56799.3695308828
 10
23017.46318522267
 20
56799.29763533372
 10
23017.40069717166
 20
56799.43531634328
 10
23017.36293288138
 20
56799.3651654344
 10
23017.04442392803
 20
56799.3651654344
 10
23017.04442392803
 20
56795.72492764163
 42
-0.7673269879791207
 10
23016.80338352706
 20
56795.66034106085
 10
23016.07816877672
 20
56796.91644985481
 42
-0.1199656033403687
 10
23015.59009941056
 20
56798.55632561848
 10
23015.56926642288
 20
56798.96861403703
 10
23015.56926642288
 20
56799.19901047336
  0
LWPOLYLINE
  5
F62A
330
1E
100
AcDbEntity
  8
DOWEL
100
AcDbPolyline
 90
        2
 70
     0
 43
0.00258346323144
 10
23017.7120978806
 20
56791.92159680585
 10
23017.73964665152
 20
56791.90569151555
  0
LWPOLYLINE
  5
F62B
330
1E
100
AcDbEntity
  8
DOWEL
100
AcDbPolyline
 90
        2
 70
     0
 43
0.00258346323144
 10
23017.13081865353
 20
56791.92159680585
 10
23017.15836742444
 20
56791.90569151555
  0
LWPOLYLINE
  5
F62C
330
1E
100
AcDbEntity
  8
DOWEL
100
AcDbPolyline
 90
        2
 70
     0
 43
0.00258346323144
 10
23017.7120978806
 20
56792.02493533511
 10
23017.73964665152
 20
56792.0090300448
  0
LWPOLYLINE
  5
F62D
330
1E
100
AcDbEntity
  8
DOWEL
100
AcDbPolyline
 90
        2
 70
     0
 43
0.00258346323144
 10
23017.13081865353
 20
56792.02493533511
 10
23017.15836742444
 20
56792.0090300448
  0
LWPOLYLINE
  5
F62E
330
1E
100
AcDbEntity
  8
DOWEL
100
AcDbPolyline
 90
        2
 70
     0
 43
0.00258346323144
 10
23017.7120978806
 20
56792.12827386436
 10
23017.73964665152
 20
56792.11236857406
  0
LWPOLYLINE
  5
F62F
330
1E
100
AcDbEntity
  8
DOWEL
100
AcDbPolyline
 90
        2
 70
     0
 43
0.00258346323144
 10
23017.13081865353
 20
56792.12827386436
 10
23017.15836742444
 20
56792.11236857406
  0
LWPOLYLINE
  5
F630
330
1E
100
AcDbEntity
  8
DOWEL
100
AcDbPolyline
 90
        2
 70
     0
 43
0.00258346323144
 10
23017.7120978806
 20
56792.23161239363
 10
23017.73964665152
 20
56792.21570710331
  0
LWPOLYLINE
  5
F631
330
1E
100
AcDbEntity
  8
DOWEL
100
AcDbPolyline
 90
        2
 70
     0
 43
0.00258346323144
 10
23017.13081865353
 20
56792.23161239363
 10
23017.15836742444
 20
56792.21570710331
  0
LWPOLYLINE
  5
F632
330
1E
100
AcDbEntity
  8
DOWEL
100
AcDbPolyline
 90
        2
 70
     0
 43
0.00258346323144
 10
23017.7120978806
 20
56792.33495092288
 10
23017.73964665152
 20
56792.31904563258
  0
LWPOLYLINE
  5
F633
330
1E
100
AcDbEntity
  8
DOWEL
100
AcDbPolyline
 90
        2
 70
     0
 43
0.00258346323144
 10
23017.13081865353
 20
56792.33495092288
 10
23017.15836742444
 20
56792.31904563258
  0
LWPOLYLINE
  5
F634
330
1E
100
AcDbEntity
  8
DOWEL
100
AcDbPolyline
 90
        2
 70
     0
 43
0.00258346323144
 10
23017.7120978806
 20
56792.43828945214
 10
23017.73964665152
 20
56792.42238416184
  0
LWPOLYLINE
  5
F635
330
1E
100
AcDbEntity
  8
DOWEL
100
AcDbPolyline
 90
        2
 70
     0
 43
0.00258346323144
 10
23017.13081865353
 20
56792.43828945214
 10
23017.15836742444
 20
56792.42238416184
  0
LWPOLYLINE
  5
F636
330
1E
100
AcDbEntity
  8
DOWEL
100
AcDbPolyline
 90
        2
 70
     0
 43
0.00258346323144
 10
23017.7120978806
 20
56792.54162798139
 10
23017.73964665152
 20
56792.52572269109
  0
LWPOLYLINE
  5
F637
330
1E
100
AcDbEntity
  8
DOWEL
100
AcDbPolyline
 90
        2
 70
     0
 43
0.00258346323144
 10
23017.13081865353
 20
56792.54162798139
 10
23017.15836742444
 20
56792.52572269109
  0
LWPOLYLINE
  5
F638
330
1E
100
AcDbEntity
  8
DOWEL
100
AcDbPolyline
 90
        2
 70
     0
 43
0.00258346323144
 10
23017.7120978806
 20
56792.64496651065
 10
23017.73964665152
 20
56792.62906122034
  0
LWPOLYLINE
  5
F639
330
1E
100
AcDbEntity
  8
DOWEL
100
AcDbPolyline
 90
        2
 70
     0
 43
0.00258346323144
 10
23017.13081865353
 20
56792.64496651065
 10
23017.15836742444
 20
56792.62906122034
  0
LWPOLYLINE
  5
F63A
330
1E
100
AcDbEntity
  8
DOWEL
100
AcDbPolyline
 90
        2
 70
     0
 43
0.00258346323144
 10
23017.7120978806
 20
56792.74830503992
 10
23017.73964665152
 20
56792.73239974961
  0
LWPOLYLINE
  5
F63B
330
1E
100
AcDbEntity
  8
DOWEL
100
AcDbPolyline
 90
        2
 70
     0
 43
0.00258346323144
 10
23017.13081865353
 20
56792.74830503992
 10
23017.15836742444
 20
56792.73239974961
  0
LWPOLYLINE
  5
F63C
330
1E
100
AcDbEntity
  8
DOWEL
100
AcDbPolyline
 90
        2
 70
     0
 43
0.00258346323144
 10
23017.7120978806
 20
56792.85164356917
 10
23017.73964665152
 20
56792.83573827887
  0
LWPOLYLINE
  5
F63D
330
1E
100
AcDbEntity
  8
DOWEL
100
AcDbPolyline
 90
        2
 70
     0
 43
0.00258346323144
 10
23017.13081865353
 20
56792.85164356917
 10
23017.15836742444
 20
56792.83573827887
  0
LWPOLYLINE
  5
F63E
330
1E
100
AcDbEntity
  8
DOWEL
100
AcDbPolyline
 90
        2
 70
     0
 43
0.00258346323144
 10
23017.7120978806
 20
56792.95498209842
 10
23017.73964665152
 20
56792.93907680812
  0
LWPOLYLINE
  5
F63F
330
1E
100
AcDbEntity
  8
DOWEL
100
AcDbPolyline
 90
        2
 70
     0
 43
0.00258346323144
 10
23017.13081865353
 20
56792.95498209842
 10
23017.15836742444
 20
56792.93907680812
  0
LWPOLYLINE
  5
F640
330
1E
100
AcDbEntity
  8
DOWEL
100
AcDbPolyline
 90
        2
 70
     0
 43
0.00258346323144
 10
23017.7120978806
 20
56793.05832062768
 10
23017.73964665152
 20
56793.04241533738
  0
LWPOLYLINE
  5
F641
330
1E
100
AcDbEntity
  8
DOWEL
100
AcDbPolyline
 90
        2
 70
     0
 43
0.00258346323144
 10
23017.13081865353
 20
56793.05832062768
 10
23017.15836742444
 20
56793.04241533738
  0
LWPOLYLINE
  5
F642
330
1E
100
AcDbEntity
  8
DOWEL
100
AcDbPolyline
 90
        2
 70
     0
 43
0.00258346323144
 10
23017.7120978806
 20
56793.16165915695
 10
23017.73964665152
 20
56793.14575386664
  0
LWPOLYLINE
  5
F643
330
1E
100
AcDbEntity
  8
DOWEL
100
AcDbPolyline
 90
        2
 70
     0
 43
0.00258346323144
 10
23017.13081865353
 20
56793.16165915695
 10
23017.15836742444
 20
56793.14575386664
  0
LWPOLYLINE
  5
F644
330
1E
100
AcDbEntity
  8
DOWEL
100
AcDbPolyline
 90
        2
 70
     0
 43
0.00258346323144
 10
23017.7120978806
 20
56793.2649976862
 10
23017.73964665152
 20
56793.24909239589
  0
LWPOLYLINE
  5
F645
330
1E
100
AcDbEntity
  8
DOWEL
100
AcDbPolyline
 90
        2
 70
     0
 43
0.00258346323144
 10
23017.13081865353
 20
56793.2649976862
 10
23017.15836742444
 20
56793.24909239589
  0
LWPOLYLINE
  5
F646
330
1E
100
AcDbEntity
  8
DOWEL
100
AcDbPolyline
 90
        2
 70
     0
 43
0.00258346323144
 10
23017.7120978806
 20
56793.36833621546
 10
23017.73964665152
 20
56793.35243092515
  0
LWPOLYLINE
  5
F647
330
1E
100
AcDbEntity
  8
DOWEL
100
AcDbPolyline
 90
        2
 70
     0
 43
0.00258346323144
 10
23017.13081865353
 20
56793.36833621546
 10
23017.15836742444
 20
56793.35243092515
  0
LWPOLYLINE
  5
F648
330
1E
100
AcDbEntity
  8
DOWEL
100
AcDbPolyline
 90
        2
 70
     0
 43
0.00258346323144
 10
23017.7120978806
 20
56793.47167474471
 10
23017.73964665152
 20
56793.4557694544
  0
LWPOLYLINE
  5
F649
330
1E
100
AcDbEntity
  8
DOWEL
100
AcDbPolyline
 90
        2
 70
     0
 43
0.00258346323144
 10
23017.13081865353
 20
56793.47167474471
 10
23017.15836742444
 20
56793.4557694544
  0
LWPOLYLINE
  5
F64A
330
1E
100
AcDbEntity
  8
DOWEL
100
AcDbPolyline
 90
        2
 70
     0
 43
0.00258346323144
 10
23017.7120978806
 20
56793.57501327397
 10
23017.73964665152
 20
56793.55910798367
  0
LWPOLYLINE
  5
F64B
330
1E
100
AcDbEntity
  8
DOWEL
100
AcDbPolyline
 90
        2
 70
     0
 43
0.00258346323144
 10
23017.13081865353
 20
56793.57501327397
 10
23017.15836742444
 20
56793.55910798367
  0
LWPOLYLINE
  5
F64C
330
1E
100
AcDbEntity
  8
DOWEL
100
AcDbPolyline
 90
        2
 70
     0
 43
0.00258346323144
 10
23017.7120978806
 20
56793.67835180323
 10
23017.73964665152
 20
56793.66244651292
  0
LWPOLYLINE
  5
F64D
330
1E
100
AcDbEntity
  8
DOWEL
100
AcDbPolyline
 90
        2
 70
     0
 43
0.00258346323144
 10
23017.13081865353
 20
56793.67835180323
 10
23017.15836742444
 20
56793.66244651292
  0
LWPOLYLINE
  5
F64E
330
1E
100
AcDbEntity
  8
DOWEL
100
AcDbPolyline
 90
        2
 70
     0
 43
0.00258346323144
 10
23017.7120978806
 20
56793.78169033248
 10
23017.73964665152
 20
56793.76578504218
  0
LWPOLYLINE
  5
F64F
330
1E
100
AcDbEntity
  8
DOWEL
100
AcDbPolyline
 90
        2
 70
     0
 43
0.00258346323144
 10
23017.13081865353
 20
56793.78169033248
 10
23017.15836742444
 20
56793.76578504218
  0
LWPOLYLINE
  5
F650
330
1E
100
AcDbEntity
  8
DOWEL
100
AcDbPolyline
 90
        2
 70
     0
 43
0.00258346323144
 10
23017.7120978806
 20
56793.88502886173
 10
23017.73964665152
 20
56793.86912357143
  0
LWPOLYLINE
  5
F651
330
1E
100
AcDbEntity
  8
DOWEL
100
AcDbPolyline
 90
        2
 70
     0
 43
0.00258346323144
 10
23017.13081865353
 20
56793.88502886173
 10
23017.15836742444
 20
56793.86912357143
  0
LWPOLYLINE
  5
F652
330
1E
100
AcDbEntity
  8
DOWEL
100
AcDbPolyline
 90
        2
 70
     0
 43
0.00258346323144
 10
23017.7120978806
 20
56793.98836739101
 10
23017.73964665152
 20
56793.9724621007
  0
LWPOLYLINE
  5
F653
330
1E
100
AcDbEntity
  8
DOWEL
100
AcDbPolyline
 90
        2
 70
     0
 43
0.00258346323144
 10
23017.13081865353
 20
56793.98836739101
 10
23017.15836742444
 20
56793.9724621007
  0
LWPOLYLINE
  5
F654
330
1E
100
AcDbEntity
  8
DOWEL
100
AcDbPolyline
 90
        2
 70
     0
 43
0.00258346323144
 10
23017.7120978806
 20
56794.09170592026
 10
23017.73964665152
 20
56794.07580062996
  0
LWPOLYLINE
  5
F655
330
1E
100
AcDbEntity
  8
DOWEL
100
AcDbPolyline
 90
        2
 70
     0
 43
0.00258346323144
 10
23017.13081865353
 20
56794.09170592026
 10
23017.15836742444
 20
56794.07580062996
  0
LWPOLYLINE
  5
F656
330
1E
100
AcDbEntity
  8
DOWEL
100
AcDbPolyline
 90
        2
 70
     0
 43
0.00258346323144
 10
23017.7120978806
 20
56794.19504444951
 10
23017.73964665152
 20
56794.17913915921
  0
LWPOLYLINE
  5
F657
330
1E
100
AcDbEntity
  8
DOWEL
100
AcDbPolyline
 90
        2
 70
     0
 43
0.00258346323144
 10
23017.13081865353
 20
56794.19504444951
 10
23017.15836742444
 20
56794.17913915921
  0
LWPOLYLINE
  5
F658
330
1E
100
AcDbEntity
  8
DOWEL
100
AcDbPolyline
 90
        2
 70
     0
 43
0.00258346323144
 10
23017.7120978806
 20
56794.29838297878
 10
23017.73964665152
 20
56794.28247768848
  0
LWPOLYLINE
  5
F659
330
1E
100
AcDbEntity
  8
DOWEL
100
AcDbPolyline
 90
        2
 70
     0
 43
0.00258346323144
 10
23017.13081865353
 20
56794.29838297878
 10
23017.15836742444
 20
56794.28247768848
  0
LWPOLYLINE
  5
F65A
330
1E
100
AcDbEntity
  8
DOWEL
100
AcDbPolyline
 90
        2
 70
     0
 43
0.00258346323144
 10
23017.7120978806
 20
56794.40172150802
 10
23017.73964665152
 20
56794.38581621774
  0
LWPOLYLINE
  5
F65B
330
1E
100
AcDbEntity
  8
DOWEL
100
AcDbPolyline
 90
        2
 70
     0
 43
0.00258346323144
 10
23017.13081865353
 20
56794.40172150802
 10
23017.15836742444
 20
56794.38581621774
  0
LWPOLYLINE
  5
F65C
330
1E
100
AcDbEntity
  8
DOWEL
100
AcDbPolyline
 90
        2
 70
     0
 43
0.00258346323144
 10
23017.7120978806
 20
56794.50506003729
 10
23017.73964665152
 20
56794.48915474699
  0
LWPOLYLINE
  5
F65D
330
1E
100
AcDbEntity
  8
DOWEL
100
AcDbPolyline
 90
        2
 70
     0
 43
0.00258346323144
 10
23017.13081865353
 20
56794.50506003729
 10
23017.15836742444
 20
56794.48915474699
  0
LWPOLYLINE
  5
F65E
330
1E
100
AcDbEntity
  8
DOWEL
100
AcDbPolyline
 90
        2
 70
     0
 43
0.00258346323144
 10
23017.7120978806
 20
56794.60839856655
 10
23017.73964665152
 20
56794.59249327624
  0
LWPOLYLINE
  5
F65F
330
1E
100
AcDbEntity
  8
DOWEL
100
AcDbPolyline
 90
        2
 70
     0
 43
0.00258346323144
 10
23017.13081865353
 20
56794.60839856655
 10
23017.15836742444
 20
56794.59249327624
  0
LWPOLYLINE
  5
F660
330
1E
100
AcDbEntity
  8
DOWEL
100
AcDbPolyline
 90
        2
 70
     0
 43
0.00258346323144
 10
23017.7120978806
 20
56794.7117370958
 10
23017.73964665152
 20
56794.6958318055
  0
LWPOLYLINE
  5
F661
330
1E
100
AcDbEntity
  8
DOWEL
100
AcDbPolyline
 90
        2
 70
     0
 43
0.00258346323144
 10
23017.13081865353
 20
56794.7117370958
 10
23017.15836742444
 20
56794.6958318055
  0
LWPOLYLINE
  5
F662
330
1E
100
AcDbEntity
  8
DOWEL
100
AcDbPolyline
 90
        2
 70
     0
 43
0.00258346323144
 10
23017.7120978806
 20
56794.81507562507
 10
23017.73964665152
 20
56794.79917033476
  0
LWPOLYLINE
  5
F663
330
1E
100
AcDbEntity
  8
DOWEL
100
AcDbPolyline
 90
        2
 70
     0
 43
0.00258346323144
 10
23017.13081865353
 20
56794.81507562507
 10
23017.15836742444
 20
56794.79917033476
  0
LWPOLYLINE
  5
F664
330
1E
100
AcDbEntity
  8
DOWEL
100
AcDbPolyline
 90
        2
 70
     0
 43
0.00258346323144
 10
23017.7120978806
 20
56794.91841415432
 10
23017.73964665152
 20
56794.90250886401
  0
LWPOLYLINE
  5
F665
330
1E
100
AcDbEntity
  8
DOWEL
100
AcDbPolyline
 90
        2
 70
     0
 43
0.00258346323144
 10
23017.13081865353
 20
56794.91841415432
 10
23017.15836742444
 20
56794.90250886401
  0
LWPOLYLINE
  5
F666
330
1E
100
AcDbEntity
  8
DOWEL
100
AcDbPolyline
 90
        2
 70
     0
 43
0.00258346323144
 10
23017.7120978806
 20
56795.02175268358
 10
23017.73964665152
 20
56795.00584739327
  0
LWPOLYLINE
  5
F667
330
1E
100
AcDbEntity
  8
DOWEL
100
AcDbPolyline
 90
        2
 70
     0
 43
0.00258346323144
 10
23017.13081865353
 20
56795.02175268358
 10
23017.15836742444
 20
56795.00584739327
  0
LWPOLYLINE
  5
F668
330
1E
100
AcDbEntity
  8
DOWEL
100
AcDbPolyline
 90
        2
 70
     0
 43
0.00258346323144
 10
23017.7120978806
 20
56795.12509121283
 10
23017.73964665152
 20
56795.10918592252
  0
LWPOLYLINE
  5
F669
330
1E
100
AcDbEntity
  8
DOWEL
100
AcDbPolyline
 90
        2
 70
     0
 43
0.00258346323144
 10
23017.13081865353
 20
56795.12509121283
 10
23017.15836742444
 20
56795.10918592252
  0
LWPOLYLINE
  5
F66A
330
1E
100
AcDbEntity
  8
DOWEL
100
AcDbPolyline
 90
        2
 70
     0
 43
0.00258346323144
 10
23017.7120978806
 20
56795.22842974209
 10
23017.73964665152
 20
56795.21252445179
  0
LWPOLYLINE
  5
F66B
330
1E
100
AcDbEntity
  8
DOWEL
100
AcDbPolyline
 90
        2
 70
     0
 43
0.00258346323144
 10
23017.13081865353
 20
56795.22842974209
 10
23017.15836742444
 20
56795.21252445179
  0
LWPOLYLINE
  5
F66C
330
1E
100
AcDbEntity
  8
DOWEL
100
AcDbPolyline
 90
        2
 70
     0
 43
0.00258346323144
 10
23017.7120978806
 20
56795.33176827135
 10
23017.73964665152
 20
56795.31586298105
  0
LWPOLYLINE
  5
F66D
330
1E
100
AcDbEntity
  8
DOWEL
100
AcDbPolyline
 90
        2
 70
     0
 43
0.00258346323144
 10
23017.13081865353
 20
56795.33176827135
 10
23017.15836742444
 20
56795.31586298105
  0
LWPOLYLINE
  5
F66E
330
1E
100
AcDbEntity
  8
DOWEL
100
AcDbPolyline
 90
        2
 70
     0
 43
0.00258346323144
 10
23017.7120978806
 20
56795.4351068006
 10
23017.73964665152
 20
56795.4192015103
  0
LWPOLYLINE
  5
F66F
330
1E
100
AcDbEntity
  8
DOWEL
100
AcDbPolyline
 90
        2
 70
     0
 43
0.00258346323144
 10
23017.13081865353
 20
56795.4351068006
 10
23017.15836742444
 20
56795.4192015103
  0
LWPOLYLINE
  5
F670
330
1E
100
AcDbEntity
  8
DOWEL
100
AcDbPolyline
 90
        2
 70
     0
 43
0.00258346323144
 10
23017.7120978806
 20
56795.53844532986
 10
23017.73964665152
 20
56795.52254003955
  0
LWPOLYLINE
  5
F671
330
1E
100
AcDbEntity
  8
DOWEL
100
AcDbPolyline
 90
        2
 70
     0
 43
0.00258346323144
 10
23017.13081865353
 20
56795.53844532986
 10
23017.15836742444
 20
56795.52254003955
  0
LWPOLYLINE
  5
F672
330
1E
100
AcDbEntity
  8
DOWEL
100
AcDbPolyline
 90
        2
 70
     0
 43
0.00258346323144
 10
23017.7120978806
 20
56795.64178385913
 10
23017.73964665152
 20
56795.62587856882
  0
LWPOLYLINE
  5
F673
330
1E
100
AcDbEntity
  8
DOWEL
100
AcDbPolyline
 90
        2
 70
     0
 43
0.00258346323144
 10
23017.13081865353
 20
56795.64178385913
 10
23017.15836742444
 20
56795.62587856882
  0
LWPOLYLINE
  5
F674
330
1E
100
AcDbEntity
  8
DOWEL
100
AcDbPolyline
 90
        2
 70
     0
 43
0.00258346323144
 10
23017.7120978806
 20
56795.74512238838
 10
23017.73964665152
 20
56795.72921709808
  0
LWPOLYLINE
  5
F675
330
1E
100
AcDbEntity
  8
DOWEL
100
AcDbPolyline
 90
        2
 70
     0
 43
0.00258346323144
 10
23017.13081865353
 20
56795.74512238838
 10
23017.15836742444
 20
56795.72921709808
  0
LWPOLYLINE
  5
F676
330
1E
100
AcDbEntity
  8
DOWEL
100
AcDbPolyline
 90
        2
 70
     0
 43
0.00258346323144
 10
23017.7120978806
 20
56795.84846091763
 10
23017.73964665152
 20
56795.83255562733
  0
LWPOLYLINE
  5
F677
330
1E
100
AcDbEntity
  8
DOWEL
100
AcDbPolyline
 90
        2
 70
     0
 43
0.00258346323144
 10
23017.13081865353
 20
56795.84846091763
 10
23017.15836742444
 20
56795.83255562733
  0
LWPOLYLINE
  5
F678
330
1E
100
AcDbEntity
  8
DOWEL
100
AcDbPolyline
 90
        2
 70
     0
 43
0.00258346323144
 10
23017.7120978806
 20
56795.95179944689
 10
23017.73964665152
 20
56795.93589415659
  0
LWPOLYLINE
  5
F679
330
1E
100
AcDbEntity
  8
DOWEL
100
AcDbPolyline
 90
        2
 70
     0
 43
0.00258346323144
 10
23017.13081865353
 20
56795.95179944689
 10
23017.15836742444
 20
56795.93589415659
  0
LWPOLYLINE
  5
F67A
330
1E
100
AcDbEntity
  8
DOWEL
100
AcDbPolyline
 90
        2
 70
     0
 43
0.00258346323144
 10
23017.7120978806
 20
56796.05513797616
 10
23017.73964665152
 20
56796.03923268586
  0
LWPOLYLINE
  5
F67B
330
1E
100
AcDbEntity
  8
DOWEL
100
AcDbPolyline
 90
        2
 70
     0
 43
0.00258346323144
 10
23017.13081865353
 20
56796.05513797616
 10
23017.15836742444
 20
56796.03923268586
  0
LWPOLYLINE
  5
F67C
330
1E
100
AcDbEntity
  8
DOWEL
100
AcDbPolyline
 90
        2
 70
     0
 43
0.00258346323144
 10
23017.7120978806
 20
56796.15847650541
 10
23017.73964665152
 20
56796.14257121511
  0
LWPOLYLINE
  5
F67D
330
1E
100
AcDbEntity
  8
DOWEL
100
AcDbPolyline
 90
        2
 70
     0
 43
0.00258346323144
 10
23017.13081865353
 20
56796.15847650541
 10
23017.15836742444
 20
56796.14257121511
  0
LWPOLYLINE
  5
F67E
330
1E
100
AcDbEntity
  8
DOWEL
100
AcDbPolyline
 90
        2
 70
     0
 43
0.00258346323144
 10
23017.7120978806
 20
56796.26181503467
 10
23017.73964665152
 20
56796.24590974436
  0
LWPOLYLINE
  5
F67F
330
1E
100
AcDbEntity
  8
DOWEL
100
AcDbPolyline
 90
        2
 70
     0
 43
0.00258346323144
 10
23017.13081865353
 20
56796.26181503467
 10
23017.15836742444
 20
56796.24590974436
  0
LWPOLYLINE
  5
F680
330
1E
100
AcDbEntity
  8
DOWEL
100
AcDbPolyline
 90
        2
 70
     0
 43
0.00258346323144
 10
23017.7120978806
 20
56796.36515356392
 10
23017.73964665152
 20
56796.34924827362
  0
LWPOLYLINE
  5
F681
330
1E
100
AcDbEntity
  8
DOWEL
100
AcDbPolyline
 90
        2
 70
     0
 43
0.00258346323144
 10
23017.13081865353
 20
56796.36515356392
 10
23017.15836742444
 20
56796.34924827362
  0
LWPOLYLINE
  5
F682
330
1E
100
AcDbEntity
  8
DOWEL
100
AcDbPolyline
 90
        2
 70
     0
 43
0.00258346323144
 10
23017.7120978806
 20
56796.46849209319
 10
23017.73964665152
 20
56796.45258680288
  0
LWPOLYLINE
  5
F683
330
1E
100
AcDbEntity
  8
DOWEL
100
AcDbPolyline
 90
        2
 70
     0
 43
0.00258346323144
 10
23017.13081865353
 20
56796.46849209319
 10
23017.15836742444
 20
56796.45258680288
  0
LWPOLYLINE
  5
F684
330
1E
100
AcDbEntity
  8
DOWEL
100
AcDbPolyline
 90
        2
 70
     0
 43
0.00258346323144
 10
23017.7120978806
 20
56796.57183062245
 10
23017.73964665152
 20
56796.55592533213
  0
LWPOLYLINE
  5
F685
330
1E
100
AcDbEntity
  8
DOWEL
100
AcDbPolyline
 90
        2
 70
     0
 43
0.00258346323144
 10
23017.13081865353
 20
56796.57183062245
 10
23017.15836742444
 20
56796.55592533213
  0
LWPOLYLINE
  5
F686
330
1E
100
AcDbEntity
  8
DOWEL
100
AcDbPolyline
 90
        2
 70
     0
 43
0.00258346323144
 10
23017.7120978806
 20
56796.6751691517
 10
23017.73964665152
 20
56796.65926386139
  0
LWPOLYLINE
  5
F687
330
1E
100
AcDbEntity
  8
DOWEL
100
AcDbPolyline
 90
        2
 70
     0
 43
0.00258346323144
 10
23017.13081865353
 20
56796.6751691517
 10
23017.15836742444
 20
56796.65926386139
  0
LWPOLYLINE
  5
F688
330
1E
100
AcDbEntity
  8
DOWEL
100
AcDbPolyline
 90
        2
 70
     0
 43
0.00258346323144
 10
23017.7120978806
 20
56796.77850768096
 10
23017.73964665152
 20
56796.76260239065
  0
LWPOLYLINE
  5
F689
330
1E
100
AcDbEntity
  8
DOWEL
100
AcDbPolyline
 90
        2
 70
     0
 43
0.00258346323144
 10
23017.13081865353
 20
56796.77850768096
 10
23017.15836742444
 20
56796.76260239065
  0
LWPOLYLINE
  5
F68A
330
1E
100
AcDbEntity
  8
DOWEL
100
AcDbPolyline
 90
        2
 70
     0
 43
0.00258346323144
 10
23017.7120978806
 20
56796.88184621022
 10
23017.73964665152
 20
56796.86594091991
  0
LWPOLYLINE
  5
F68B
330
1E
100
AcDbEntity
  8
DOWEL
100
AcDbPolyline
 90
        2
 70
     0
 43
0.00258346323144
 10
23017.13081865353
 20
56796.88184621022
 10
23017.15836742444
 20
56796.86594091991
  0
LWPOLYLINE
  5
F68C
330
1E
100
AcDbEntity
  8
DOWEL
100
AcDbPolyline
 90
        2
 70
     0
 43
0.00258346323144
 10
23017.7120978806
 20
56796.98518473947
 10
23017.73964665152
 20
56796.96927944917
  0
LWPOLYLINE
  5
F68D
330
1E
100
AcDbEntity
  8
DOWEL
100
AcDbPolyline
 90
        2
 70
     0
 43
0.00258346323144
 10
23017.13081865353
 20
56796.98518473947
 10
23017.15836742444
 20
56796.96927944917
  0
LWPOLYLINE
  5
F68E
330
1E
100
AcDbEntity
  8
DOWEL
100
AcDbPolyline
 90
        2
 70
     0
 43
0.00258346323144
 10
23017.7120978806
 20
56797.08852326872
 10
23017.73964665152
 20
56797.07261797842
  0
LWPOLYLINE
  5
F68F
330
1E
100
AcDbEntity
  8
DOWEL
100
AcDbPolyline
 90
        2
 70
     0
 43
0.00258346323144
 10
23017.13081865353
 20
56797.08852326872
 10
23017.15836742444
 20
56797.07261797842
  0
LWPOLYLINE
  5
F690
330
1E
100
AcDbEntity
  8
DOWEL
100
AcDbPolyline
 90
        2
 70
     0
 43
0.00258346323144
 10
23017.7120978806
 20
56797.19186179798
 10
23017.73964665152
 20
56797.17595650767
  0
LWPOLYLINE
  5
F691
330
1E
100
AcDbEntity
  8
DOWEL
100
AcDbPolyline
 90
        2
 70
     0
 43
0.00258346323144
 10
23017.13081865353
 20
56797.19186179798
 10
23017.15836742444
 20
56797.17595650767
  0
LWPOLYLINE
  5
F692
330
1E
100
AcDbEntity
  8
DOWEL
100
AcDbPolyline
 90
        2
 70
     0
 43
0.00258346323144
 10
23017.7120978806
 20
56797.29520032725
 10
23017.73964665152
 20
56797.27929503695
  0
LWPOLYLINE
  5
F693
330
1E
100
AcDbEntity
  8
DOWEL
100
AcDbPolyline
 90
        2
 70
     0
 43
0.00258346323144
 10
23017.13081865353
 20
56797.29520032725
 10
23017.15836742444
 20
56797.27929503695
  0
LWPOLYLINE
  5
F694
330
1E
100
AcDbEntity
  8
DOWEL
100
AcDbPolyline
 90
        2
 70
     0
 43
0.00258346323144
 10
23017.7120978806
 20
56797.3985388565
 10
23017.73964665152
 20
56797.3826335662
  0
LWPOLYLINE
  5
F695
330
1E
100
AcDbEntity
  8
DOWEL
100
AcDbPolyline
 90
        2
 70
     0
 43
0.00258346323144
 10
23017.13081865353
 20
56797.3985388565
 10
23017.15836742444
 20
56797.3826335662
  0
LWPOLYLINE
  5
F696
330
1E
100
AcDbEntity
  8
DOWEL
100
AcDbPolyline
 90
        2
 70
     0
 43
0.00258346323144
 10
23017.7120978806
 20
56797.50187738576
 10
23017.73964665152
 20
56797.48597209545
  0
LWPOLYLINE
  5
F697
330
1E
100
AcDbEntity
  8
DOWEL
100
AcDbPolyline
 90
        2
 70
     0
 43
0.00258346323144
 10
23017.13081865353
 20
56797.50187738576
 10
23017.15836742444
 20
56797.48597209545
  0
LWPOLYLINE
  5
F698
330
1E
100
AcDbEntity
  8
DOWEL
100
AcDbPolyline
 90
        2
 70
     0
 43
0.00258346323144
 10
23017.7120978806
 20
56797.60521591501
 10
23017.73964665152
 20
56797.58931062471
  0
LWPOLYLINE
  5
F699
330
1E
100
AcDbEntity
  8
DOWEL
100
AcDbPolyline
 90
        2
 70
     0
 43
0.00258346323144
 10
23017.13081865353
 20
56797.60521591501
 10
23017.15836742444
 20
56797.58931062471
  0
LWPOLYLINE
  5
F69A
330
1E
100
AcDbEntity
  8
DOWEL
100
AcDbPolyline
 90
        2
 70
     0
 43
0.00258346323144
 10
23017.7120978806
 20
56797.70855444428
 10
23017.73964665152
 20
56797.69264915398
  0
LWPOLYLINE
  5
F69B
330
1E
100
AcDbEntity
  8
DOWEL
100
AcDbPolyline
 90
        2
 70
     0
 43
0.00258346323144
 10
23017.13081865353
 20
56797.70855444428
 10
23017.15836742444
 20
56797.69264915398
  0
LWPOLYLINE
  5
F69C
330
1E
100
AcDbEntity
  8
DOWEL
100
AcDbPolyline
 90
        2
 70
     0
 43
0.00258346323144
 10
23017.7120978806
 20
56797.81189297353
 10
23017.73964665152
 20
56797.79598768323
  0
LWPOLYLINE
  5
F69D
330
1E
100
AcDbEntity
  8
DOWEL
100
AcDbPolyline
 90
        2
 70
     0
 43
0.00258346323144
 10
23017.13081865353
 20
56797.81189297353
 10
23017.15836742444
 20
56797.79598768323
  0
LWPOLYLINE
  5
F69E
330
1E
100
AcDbEntity
  8
DOWEL
100
AcDbPolyline
 90
        2
 70
     0
 43
0.00258346323144
 10
23017.7120978806
 20
56797.91523150279
 10
23017.73964665152
 20
56797.89932621249
  0
LWPOLYLINE
  5
F69F
330
1E
100
AcDbEntity
  8
DOWEL
100
AcDbPolyline
 90
        2
 70
     0
 43
0.00258346323144
 10
23017.13081865353
 20
56797.91523150279
 10
23017.15836742444
 20
56797.89932621249
  0
LWPOLYLINE
  5
F6A0
330
1E
100
AcDbEntity
  8
DOWEL
100
AcDbPolyline
 90
        2
 70
     0
 43
0.00258346323144
 10
23017.7120978806
 20
56798.01857003204
 10
23017.73964665152
 20
56798.00266474174
  0
LWPOLYLINE
  5
F6A1
330
1E
100
AcDbEntity
  8
DOWEL
100
AcDbPolyline
 90
        2
 70
     0
 43
0.00258346323144
 10
23017.13081865353
 20
56798.01857003204
 10
23017.15836742444
 20
56798.00266474174
  0
LWPOLYLINE
  5
F6A2
330
1E
100
AcDbEntity
  8
DOWEL
100
AcDbPolyline
 90
        2
 70
     0
 43
0.00258346323144
 10
23017.7120978806
 20
56798.12190856131
 10
23017.73964665152
 20
56798.106003271
  0
LWPOLYLINE
  5
F6A3
330
1E
100
AcDbEntity
  8
DOWEL
100
AcDbPolyline
 90
        2
 70
     0
 43
0.00258346323144
 10
23017.13081865353
 20
56798.12190856131
 10
23017.15836742444
 20
56798.106003271
  0
LWPOLYLINE
  5
F6A4
330
1E
100
AcDbEntity
  8
DOWEL
100
AcDbPolyline
 90
        2
 70
     0
 43
0.00258346323144
 10
23017.7120978806
 20
56798.22524709057
 10
23017.73964665152
 20
56798.20934180026
  0
LWPOLYLINE
  5
F6A5
330
1E
100
AcDbEntity
  8
DOWEL
100
AcDbPolyline
 90
        2
 70
     0
 43
0.00258346323144
 10
23017.13081865353
 20
56798.22524709057
 10
23017.15836742444
 20
56798.20934180026
  0
LWPOLYLINE
  5
F6A6
330
1E
100
AcDbEntity
  8
DOWEL
100
AcDbPolyline
 90
        2
 70
     0
 43
0.00258346323144
 10
23017.7120978806
 20
56798.32858561982
 10
23017.73964665152
 20
56798.31268032951
  0
LWPOLYLINE
  5
F6A7
330
1E
100
AcDbEntity
  8
DOWEL
100
AcDbPolyline
 90
        2
 70
     0
 43
0.00258346323144
 10
23017.13081865353
 20
56798.32858561982
 10
23017.15836742444
 20
56798.31268032951
  0
LWPOLYLINE
  5
F6A8
330
1E
100
AcDbEntity
  8
DOWEL
100
AcDbPolyline
 90
        2
 70
     0
 43
0.00258346323144
 10
23017.7120978806
 20
56798.43192414907
 10
23017.73964665152
 20
56798.41601885877
  0
LWPOLYLINE
  5
F6A9
330
1E
100
AcDbEntity
  8
DOWEL
100
AcDbPolyline
 90
        2
 70
     0
 43
0.00258346323144
 10
23017.13081865353
 20
56798.43192414907
 10
23017.15836742444
 20
56798.41601885877
  0
LWPOLYLINE
  5
F6AA
330
1E
100
AcDbEntity
  8
DOWEL
100
AcDbPolyline
 90
        2
 70
     0
 43
0.00258346323144
 10
23017.7120978806
 20
56798.53526267834
 10
23017.73964665152
 20
56798.51935738803
  0
LWPOLYLINE
  5
F6AB
330
1E
100
AcDbEntity
  8
DOWEL
100
AcDbPolyline
 90
        2
 70
     0
 43
0.00258346323144
 10
23017.13081865353
 20
56798.53526267834
 10
23017.15836742444
 20
56798.51935738803
  0
LWPOLYLINE
  5
F6AC
330
1E
100
AcDbEntity
  8
DOWEL
100
AcDbPolyline
 90
        2
 70
     0
 43
0.00258346323144
 10
23017.7120978806
 20
56798.63860120759
 10
23017.73964665152
 20
56798.62269591729
  0
LWPOLYLINE
  5
F6AD
330
1E
100
AcDbEntity
  8
DOWEL
100
AcDbPolyline
 90
        2
 70
     0
 43
0.00258346323144
 10
23017.13081865353
 20
56798.63860120759
 10
23017.15836742444
 20
56798.62269591729
  0
LWPOLYLINE
  5
F6AE
330
1E
100
AcDbEntity
  8
DOWEL
100
AcDbPolyline
 90
        2
 70
     0
 43
0.00258346323144
 10
23017.7120978806
 20
56798.74193973684
 10
23017.73964665152
 20
56798.72603444654
  0
LWPOLYLINE
  5
F6AF
330
1E
100
AcDbEntity
  8
DOWEL
100
AcDbPolyline
 90
        2
 70
     0
 43
0.00258346323144
 10
23017.13081865353
 20
56798.74193973684
 10
23017.15836742444
 20
56798.72603444654
  0
LWPOLYLINE
  5
F6B0
330
1E
100
AcDbEntity
  8
DOWEL
100
AcDbPolyline
 90
        2
 70
     0
 43
0.00258346323144
 10
23017.7120978806
 20
56798.8452782661
 10
23017.73964665152
 20
56798.82937297581
  0
LWPOLYLINE
  5
F6B1
330
1E
100
AcDbEntity
  8
DOWEL
100
AcDbPolyline
 90
        2
 70
     0
 43
0.00258346323144
 10
23017.13081865353
 20
56798.8452782661
 10
23017.15836742444
 20
56798.82937297581
  0
LWPOLYLINE
  5
F6B2
330
1E
100
AcDbEntity
  8
DOWEL
100
AcDbPolyline
 90
        2
 70
     0
 43
0.00258346323144
 10
23017.7120978806
 20
56798.94861679537
 10
23017.73964665152
 20
56798.93271150507
  0
LWPOLYLINE
  5
F6B3
330
1E
100
AcDbEntity
  8
DOWEL
100
AcDbPolyline
 90
        2
 70
     0
 43
0.00258346323144
 10
23017.13081865353
 20
56798.94861679537
 10
23017.15836742444
 20
56798.93271150507
  0
LWPOLYLINE
  5
F6B4
330
1E
100
AcDbEntity
  8
DOWEL
100
AcDbPolyline
 90
        2
 70
     0
 43
0.00258346323144
 10
23017.7120978806
 20
56799.05195532462
 10
23017.73964665152
 20
56799.03605003432
  0
LWPOLYLINE
  5
F6B5
330
1E
100
AcDbEntity
  8
DOWEL
100
AcDbPolyline
 90
        2
 70
     0
 43
0.00258346323144
 10
23017.13081865353
 20
56799.05195532462
 10
23017.15836742444
 20
56799.03605003432
  0
LWPOLYLINE
  5
F6B6
330
1E
100
AcDbEntity
  8
DOWEL
100
AcDbPolyline
 90
        2
 70
     0
 43
0.00258346323144
 10
23017.7120978806
 20
56799.15529385388
 10
23017.73964665152
 20
56799.13938856357
  0
LWPOLYLINE
  5
F6B7
330
1E
100
AcDbEntity
  8
DOWEL
100
AcDbPolyline
 90
        2
 70
     0
 43
0.00258346323144
 10
23017.13081865353
 20
56799.15529385388
 10
23017.15836742444
 20
56799.13938856357
  0
LWPOLYLINE
  5
F6B8
330
1E
100
AcDbEntity
  8
DOWEL
100
AcDbPolyline
 90
        2
 70
     0
 43
0.00258346323144
 10
23017.7120978806
 20
56799.25863238313
 10
23017.73964665152
 20
56799.24272709283
  0
LWPOLYLINE
  5
F6B9
330
1E
100
AcDbEntity
  8
DOWEL
100
AcDbPolyline
 90
        2
 70
     0
 43
0.00258346323144
 10
23017.13081865353
 20
56799.25863238313
 10
23017.15836742444
 20
56799.24272709283
  0
LWPOLYLINE
  5
F6BA
330
1E
100
AcDbEntity
  8
DOWEL
100
AcDbPolyline
 90
        2
 70
     0
 43
0.00258346323144
 10
23017.7120978806
 20
56799.3619709124
 10
23017.73964665152
 20
56799.3460656221
  0
LWPOLYLINE
  5
F6BB
330
1E
100
AcDbEntity
  8
DOWEL
100
AcDbPolyline
 90
        2
 70
     0
 43
0.00258346323144
 10
23017.13649731704
 20
56799.35869233449
 10
23017.15836742444
 20
56799.3460656221
  0
LWPOLYLINE
  5
F6C0
330
1E
100
AcDbEntity
  8
DOWEL
100
AcDbPolyline
 90
        2
 70
     0
 43
0.00258346323144
 10
23015.25822015543
 20
56791.92159680585
 10
23015.28576892634
 20
56791.90569151555
  0
LWPOLYLINE
  5
F6C1
330
1E
100
AcDbEntity
  8
DOWEL
100
AcDbPolyline
 90
        2
 70
     0
 43
0.00258346323144
 10
23015.45197989779
 20
56791.92159680585
 10
23015.4795286687
 20
56791.90569151555
  0
LWPOLYLINE
  5
F6C2
330
1E
100
AcDbEntity
  8
DOWEL
100
AcDbPolyline
 90
        2
 70
     0
 43
0.00258346323144
 10
23015.25822015543
 20
56792.02493533511
 10
23015.28576892634
 20
56792.0090300448
  0
LWPOLYLINE
  5
F6C3
330
1E
100
AcDbEntity
  8
DOWEL
100
AcDbPolyline
 90
        2
 70
     0
 43
0.00258346323144
 10
23015.45197989779
 20
56792.02493533511
 10
23015.4795286687
 20
56792.0090300448
  0
LWPOLYLINE
  5
F6C4
330
1E
100
AcDbEntity
  8
DOWEL
100
AcDbPolyline
 90
        2
 70
     0
 43
0.00258346323144
 10
23015.25822015543
 20
56792.12827386436
 10
23015.28576892634
 20
56792.11236857406
  0
LWPOLYLINE
  5
F6C5
330
1E
100
AcDbEntity
  8
DOWEL
100
AcDbPolyline
 90
        2
 70
     0
 43
0.00258346323144
 10
23015.45197989779
 20
56792.12827386436
 10
23015.4795286687
 20
56792.11236857406
  0
LWPOLYLINE
  5
F6C6
330
1E
100
AcDbEntity
  8
DOWEL
100
AcDbPolyline
 90
        2
 70
     0
 43
0.00258346323144
 10
23015.25822015543
 20
56792.23161239363
 10
23015.28576892634
 20
56792.21570710331
  0
LWPOLYLINE
  5
F6C7
330
1E
100
AcDbEntity
  8
DOWEL
100
AcDbPolyline
 90
        2
 70
     0
 43
0.00258346323144
 10
23015.45197989779
 20
56792.23161239363
 10
23015.4795286687
 20
56792.21570710331
  0
LWPOLYLINE
  5
F6C8
330
1E
100
AcDbEntity
  8
DOWEL
100
AcDbPolyline
 90
        2
 70
     0
 43
0.00258346323144
 10
23015.25822015543
 20
56792.33495092288
 10
23015.28576892634
 20
56792.31904563258
  0
LWPOLYLINE
  5
F6C9
330
1E
100
AcDbEntity
  8
DOWEL
100
AcDbPolyline
 90
        2
 70
     0
 43
0.00258346323144
 10
23015.45197989779
 20
56792.33495092288
 10
23015.4795286687
 20
56792.31904563258
  0
LWPOLYLINE
  5
F6CA
330
1E
100
AcDbEntity
  8
DOWEL
100
AcDbPolyline
 90
        2
 70
     0
 43
0.00258346323144
 10
23015.25822015543
 20
56792.43828945214
 10
23015.28576892634
 20
56792.42238416184
  0
LWPOLYLINE
  5
F6CB
330
1E
100
AcDbEntity
  8
DOWEL
100
AcDbPolyline
 90
        2
 70
     0
 43
0.00258346323144
 10
23015.45197989779
 20
56792.43828945214
 10
23015.4795286687
 20
56792.42238416184
  0
LWPOLYLINE
  5
F6CC
330
1E
100
AcDbEntity
  8
DOWEL
100
AcDbPolyline
 90
        2
 70
     0
 43
0.00258346323144
 10
23015.25822015543
 20
56792.54162798139
 10
23015.28576892634
 20
56792.52572269109
  0
LWPOLYLINE
  5
F6CD
330
1E
100
AcDbEntity
  8
DOWEL
100
AcDbPolyline
 90
        2
 70
     0
 43
0.00258346323144
 10
23015.45197989779
 20
56792.54162798139
 10
23015.4795286687
 20
56792.52572269109
  0
LWPOLYLINE
  5
F6CE
330
1E
100
AcDbEntity
  8
DOWEL
100
AcDbPolyline
 90
        2
 70
     0
 43
0.00258346323144
 10
23015.25822015543
 20
56792.64496651065
 10
23015.28576892634
 20
56792.62906122034
  0
LWPOLYLINE
  5
F6CF
330
1E
100
AcDbEntity
  8
DOWEL
100
AcDbPolyline
 90
        2
 70
     0
 43
0.00258346323144
 10
23015.45197989779
 20
56792.64496651065
 10
23015.4795286687
 20
56792.62906122034
  0
LWPOLYLINE
  5
F6D0
330
1E
100
AcDbEntity
  8
DOWEL
100
AcDbPolyline
 90
        2
 70
     0
 43
0.00258346323144
 10
23015.25822015543
 20
56792.74830503992
 10
23015.28576892634
 20
56792.73239974961
  0
LWPOLYLINE
  5
F6D1
330
1E
100
AcDbEntity
  8
DOWEL
100
AcDbPolyline
 90
        2
 70
     0
 43
0.00258346323144
 10
23015.45197989779
 20
56792.74830503992
 10
23015.4795286687
 20
56792.73239974961
  0
LWPOLYLINE
  5
F6D2
330
1E
100
AcDbEntity
  8
DOWEL
100
AcDbPolyline
 90
        2
 70
     0
 43
0.00258346323144
 10
23015.25822015543
 20
56792.85164356917
 10
23015.28576892634
 20
56792.83573827887
  0
LWPOLYLINE
  5
F6D3
330
1E
100
AcDbEntity
  8
DOWEL
100
AcDbPolyline
 90
        2
 70
     0
 43
0.00258346323144
 10
23015.45197989779
 20
56792.85164356917
 10
23015.4795286687
 20
56792.83573827887
  0
LWPOLYLINE
  5
F6D4
330
1E
100
AcDbEntity
  8
DOWEL
100
AcDbPolyline
 90
        2
 70
     0
 43
0.00258346323144
 10
23015.25822015543
 20
56792.95498209842
 10
23015.28576892634
 20
56792.93907680812
  0
LWPOLYLINE
  5
F6D5
330
1E
100
AcDbEntity
  8
DOWEL
100
AcDbPolyline
 90
        2
 70
     0
 43
0.00258346323144
 10
23015.45197989779
 20
56792.95498209842
 10
23015.4795286687
 20
56792.93907680812
  0
LWPOLYLINE
  5
F6D6
330
1E
100
AcDbEntity
  8
DOWEL
100
AcDbPolyline
 90
        2
 70
     0
 43
0.00258346323144
 10
23015.25822015543
 20
56793.05832062768
 10
23015.28576892634
 20
56793.04241533738
  0
LWPOLYLINE
  5
F6D7
330
1E
100
AcDbEntity
  8
DOWEL
100
AcDbPolyline
 90
        2
 70
     0
 43
0.00258346323144
 10
23015.45197989779
 20
56793.05832062768
 10
23015.4795286687
 20
56793.04241533738
  0
LWPOLYLINE
  5
F6D8
330
1E
100
AcDbEntity
  8
DOWEL
100
AcDbPolyline
 90
        2
 70
     0
 43
0.00258346323144
 10
23015.25822015543
 20
56793.16165915695
 10
23015.28576892634
 20
56793.14575386664
  0
LWPOLYLINE
  5
F6D9
330
1E
100
AcDbEntity
  8
DOWEL
100
AcDbPolyline
 90
        2
 70
     0
 43
0.00258346323144
 10
23015.45197989779
 20
56793.16165915695
 10
23015.4795286687
 20
56793.14575386664
  0
LWPOLYLINE
  5
F6DA
330
1E
100
AcDbEntity
  8
DOWEL
100
AcDbPolyline
 90
        2
 70
     0
 43
0.00258346323144
 10
23015.25822015543
 20
56793.2649976862
 10
23015.28576892634
 20
56793.24909239589
  0
LWPOLYLINE
  5
F6DB
330
1E
100
AcDbEntity
  8
DOWEL
100
AcDbPolyline
 90
        2
 70
     0
 43
0.00258346323144
 10
23015.45197989779
 20
56793.2649976862
 10
23015.4795286687
 20
56793.24909239589
  0
LWPOLYLINE
  5
F6DC
330
1E
100
AcDbEntity
  8
DOWEL
100
AcDbPolyline
 90
        2
 70
     0
 43
0.00258346323144
 10
23015.25822015543
 20
56793.36833621546
 10
23015.28576892634
 20
56793.35243092515
  0
LWPOLYLINE
  5
F6DD
330
1E
100
AcDbEntity
  8
DOWEL
100
AcDbPolyline
 90
        2
 70
     0
 43
0.00258346323144
 10
23015.45197989779
 20
56793.36833621546
 10
23015.4795286687
 20
56793.35243092515
  0
LWPOLYLINE
  5
F6DE
330
1E
100
AcDbEntity
  8
DOWEL
100
AcDbPolyline
 90
        2
 70
     0
 43
0.00258346323144
 10
23015.25822015543
 20
56793.47167474471
 10
23015.28576892634
 20
56793.4557694544
  0
LWPOLYLINE
  5
F6DF
330
1E
100
AcDbEntity
  8
DOWEL
100
AcDbPolyline
 90
        2
 70
     0
 43
0.00258346323144
 10
23015.45197989779
 20
56793.47167474471
 10
23015.4795286687
 20
56793.4557694544
  0
LWPOLYLINE
  5
F6E0
330
1E
100
AcDbEntity
  8
DOWEL
100
AcDbPolyline
 90
        2
 70
     0
 43
0.00258346323144
 10
23015.25822015543
 20
56793.57501327397
 10
23015.28576892634
 20
56793.55910798367
  0
LWPOLYLINE
  5
F6E1
330
1E
100
AcDbEntity
  8
DOWEL
100
AcDbPolyline
 90
        2
 70
     0
 43
0.00258346323144
 10
23015.45197989779
 20
56793.57501327397
 10
23015.4795286687
 20
56793.55910798367
  0
LWPOLYLINE
  5
F6E2
330
1E
100
AcDbEntity
  8
DOWEL
100
AcDbPolyline
 90
        2
 70
     0
 43
0.00258346323144
 10
23015.25822015543
 20
56793.67835180323
 10
23015.28576892634
 20
56793.66244651292
  0
LWPOLYLINE
  5
F6E3
330
1E
100
AcDbEntity
  8
DOWEL
100
AcDbPolyline
 90
        2
 70
     0
 43
0.00258346323144
 10
23015.45197989779
 20
56793.67835180323
 10
23015.4795286687
 20
56793.66244651292
  0
LWPOLYLINE
  5
F6E4
330
1E
100
AcDbEntity
  8
DOWEL
100
AcDbPolyline
 90
        2
 70
     0
 43
0.00258346323144
 10
23015.25822015543
 20
56793.78169033248
 10
23015.28576892634
 20
56793.76578504218
  0
LWPOLYLINE
  5
F6E5
330
1E
100
AcDbEntity
  8
DOWEL
100
AcDbPolyline
 90
        2
 70
     0
 43
0.00258346323144
 10
23015.45197989779
 20
56793.78169033248
 10
23015.4795286687
 20
56793.76578504218
  0
LWPOLYLINE
  5
F6E6
330
1E
100
AcDbEntity
  8
DOWEL
100
AcDbPolyline
 90
        2
 70
     0
 43
0.00258346323144
 10
23015.25822015543
 20
56793.88502886173
 10
23015.28576892634
 20
56793.86912357143
  0
LWPOLYLINE
  5
F6E7
330
1E
100
AcDbEntity
  8
DOWEL
100
AcDbPolyline
 90
        2
 70
     0
 43
0.00258346323144
 10
23015.45197989779
 20
56793.88502886173
 10
23015.4795286687
 20
56793.86912357143
  0
LWPOLYLINE
  5
F6E8
330
1E
100
AcDbEntity
  8
DOWEL
100
AcDbPolyline
 90
        2
 70
     0
 43
0.00258346323144
 10
23015.25822015543
 20
56793.98836739101
 10
23015.28576892634
 20
56793.9724621007
  0
LWPOLYLINE
  5
F6E9
330
1E
100
AcDbEntity
  8
DOWEL
100
AcDbPolyline
 90
        2
 70
     0
 43
0.00258346323144
 10
23015.45197989779
 20
56793.98836739101
 10
23015.4795286687
 20
56793.9724621007
  0
LWPOLYLINE
  5
F6EA
330
1E
100
AcDbEntity
  8
DOWEL
100
AcDbPolyline
 90
        2
 70
     0
 43
0.00258346323144
 10
23015.25822015543
 20
56794.09170592026
 10
23015.28576892634
 20
56794.07580062996
  0
LWPOLYLINE
  5
F6EB
330
1E
100
AcDbEntity
  8
DOWEL
100
AcDbPolyline
 90
        2
 70
     0
 43
0.00258346323144
 10
23015.45197989779
 20
56794.09170592026
 10
23015.4795286687
 20
56794.07580062996
  0
LWPOLYLINE
  5
F6EC
330
1E
100
AcDbEntity
  8
DOWEL
100
AcDbPolyline
 90
        2
 70
     0
 43
0.00258346323144
 10
23015.25822015543
 20
56794.19504444951
 10
23015.28576892634
 20
56794.17913915921
  0
LWPOLYLINE
  5
F6ED
330
1E
100
AcDbEntity
  8
DOWEL
100
AcDbPolyline
 90
        2
 70
     0
 43
0.00258346323144
 10
23015.45197989779
 20
56794.19504444951
 10
23015.4795286687
 20
56794.17913915921
  0
LWPOLYLINE
  5
F6EE
330
1E
100
AcDbEntity
  8
DOWEL
100
AcDbPolyline
 90
        2
 70
     0
 43
0.00258346323144
 10
23015.25822015543
 20
56794.29838297878
 10
23015.28576892634
 20
56794.28247768848
  0
LWPOLYLINE
  5
F6EF
330
1E
100
AcDbEntity
  8
DOWEL
100
AcDbPolyline
 90
        2
 70
     0
 43
0.00258346323144
 10
23015.45197989779
 20
56794.29838297878
 10
23015.4795286687
 20
56794.28247768848
  0
LWPOLYLINE
  5
F6F0
330
1E
100
AcDbEntity
  8
DOWEL
100
AcDbPolyline
 90
        2
 70
     0
 43
0.00258346323144
 10
23015.25822015543
 20
56794.40172150802
 10
23015.28576892634
 20
56794.38581621774
  0
LWPOLYLINE
  5
F6F1
330
1E
100
AcDbEntity
  8
DOWEL
100
AcDbPolyline
 90
        2
 70
     0
 43
0.00258346323144
 10
23015.45197989779
 20
56794.40172150802
 10
23015.4795286687
 20
56794.38581621774
  0
LWPOLYLINE
  5
F6F2
330
1E
100
AcDbEntity
  8
DOWEL
100
AcDbPolyline
 90
        2
 70
     0
 43
0.00258346323144
 10
23015.25822015543
 20
56794.50506003729
 10
23015.28576892634
 20
56794.48915474699
  0
LWPOLYLINE
  5
F6F3
330
1E
100
AcDbEntity
  8
DOWEL
100
AcDbPolyline
 90
        2
 70
     0
 43
0.00258346323144
 10
23015.45197989779
 20
56794.50506003729
 10
23015.4795286687
 20
56794.48915474699
  0
LWPOLYLINE
  5
F6F4
330
1E
100
AcDbEntity
  8
DOWEL
100
AcDbPolyline
 90
        2
 70
     0
 43
0.00258346323144
 10
23015.25822015543
 20
56794.60839856655
 10
23015.28576892634
 20
56794.59249327624
  0
LWPOLYLINE
  5
F6F5
330
1E
100
AcDbEntity
  8
DOWEL
100
AcDbPolyline
 90
        2
 70
     0
 43
0.00258346323144
 10
23015.45197989779
 20
56794.60839856655
 10
23015.4795286687
 20
56794.59249327624
  0
LWPOLYLINE
  5
F6F6
330
1E
100
AcDbEntity
  8
DOWEL
100
AcDbPolyline
 90
        2
 70
     0
 43
0.00258346323144
 10
23015.25822015543
 20
56794.7117370958
 10
23015.28576892634
 20
56794.6958318055
  0
LWPOLYLINE
  5
F6F7
330
1E
100
AcDbEntity
  8
DOWEL
100
AcDbPolyline
 90
        2
 70
     0
 43
0.00258346323144
 10
23015.45197989779
 20
56794.7117370958
 10
23015.4795286687
 20
56794.6958318055
  0
LWPOLYLINE
  5
F6F8
330
1E
100
AcDbEntity
  8
DOWEL
100
AcDbPolyline
 90
        2
 70
     0
 43
0.00258346323144
 10
23015.25822015543
 20
56794.81507562507
 10
23015.28576892634
 20
56794.79917033476
  0
LWPOLYLINE
  5
F6F9
330
1E
100
AcDbEntity
  8
DOWEL
100
AcDbPolyline
 90
        2
 70
     0
 43
0.00258346323144
 10
23015.45197989779
 20
56794.81507562507
 10
23015.4795286687
 20
56794.79917033476
  0
LWPOLYLINE
  5
F6FA
330
1E
100
AcDbEntity
  8
DOWEL
100
AcDbPolyline
 90
        2
 70
     0
 43
0.00258346323144
 10
23015.25822015543
 20
56794.91841415432
 10
23015.28576892634
 20
56794.90250886401
  0
LWPOLYLINE
  5
F6FB
330
1E
100
AcDbEntity
  8
DOWEL
100
AcDbPolyline
 90
        2
 70
     0
 43
0.00258346323144
 10
23015.45197989779
 20
56794.91841415432
 10
23015.4795286687
 20
56794.90250886401
  0
LWPOLYLINE
  5
F6FC
330
1E
100
AcDbEntity
  8
DOWEL
100
AcDbPolyline
 90
        2
 70
     0
 43
0.00258346323144
 10
23015.25822015543
 20
56795.02175268358
 10
23015.28576892634
 20
56795.00584739327
  0
LWPOLYLINE
  5
F6FD
330
1E
100
AcDbEntity
  8
DOWEL
100
AcDbPolyline
 90
        2
 70
     0
 43
0.00258346323144
 10
23015.45197989779
 20
56795.02175268358
 10
23015.4795286687
 20
56795.00584739327
  0
LWPOLYLINE
  5
F6FE
330
1E
100
AcDbEntity
  8
DOWEL
100
AcDbPolyline
 90
        2
 70
     0
 43
0.00258346323144
 10
23015.25822015543
 20
56795.12509121283
 10
23015.28576892634
 20
56795.10918592252
  0
LWPOLYLINE
  5
F6FF
330
1E
100
AcDbEntity
  8
DOWEL
100
AcDbPolyline
 90
        2
 70
     0
 43
0.00258346323144
 10
23015.45197989779
 20
56795.12509121283
 10
23015.4795286687
 20
56795.10918592252
  0
LWPOLYLINE
  5
F700
330
1E
100
AcDbEntity
  8
DOWEL
100
AcDbPolyline
 90
        2
 70
     0
 43
0.00258346323144
 10
23015.25822015543
 20
56795.22842974209
 10
23015.28576892634
 20
56795.21252445179
  0
LWPOLYLINE
  5
F701
330
1E
100
AcDbEntity
  8
DOWEL
100
AcDbPolyline
 90
        2
 70
     0
 43
0.00258346323144
 10
23015.45197989779
 20
56795.22842974209
 10
23015.4795286687
 20
56795.21252445179
  0
LWPOLYLINE
  5
F702
330
1E
100
AcDbEntity
  8
DOWEL
100
AcDbPolyline
 90
        2
 70
     0
 43
0.00258346323144
 10
23015.25822015543
 20
56795.33176827135
 10
23015.28576892634
 20
56795.31586298105
  0
LWPOLYLINE
  5
F703
330
1E
100
AcDbEntity
  8
DOWEL
100
AcDbPolyline
 90
        2
 70
     0
 43
0.00258346323144
 10
23015.45197989779
 20
56795.33176827135
 10
23015.4795286687
 20
56795.31586298105
  0
LWPOLYLINE
  5
F704
330
1E
100
AcDbEntity
  8
DOWEL
100
AcDbPolyline
 90
        2
 70
     0
 43
0.00258346323144
 10
23015.25822015543
 20
56795.4351068006
 10
23015.28576892634
 20
56795.4192015103
  0
LWPOLYLINE
  5
F705
330
1E
100
AcDbEntity
  8
DOWEL
100
AcDbPolyline
 90
        2
 70
     0
 43
0.00258346323144
 10
23015.45197989779
 20
56795.4351068006
 10
23015.4795286687
 20
56795.4192015103
  0
LWPOLYLINE
  5
F706
330
1E
100
AcDbEntity
  8
DOWEL
100
AcDbPolyline
 90
        2
 70
     0
 43
0.00258346323144
 10
23015.25822015543
 20
56795.53844532986
 10
23015.28576892634
 20
56795.52254003955
  0
LWPOLYLINE
  5
F707
330
1E
100
AcDbEntity
  8
DOWEL
100
AcDbPolyline
 90
        2
 70
     0
 43
0.00258346323144
 10
23015.45197989779
 20
56795.53844532986
 10
23015.4795286687
 20
56795.52254003955
  0
LWPOLYLINE
  5
F708
330
1E
100
AcDbEntity
  8
DOWEL
100
AcDbPolyline
 90
        2
 70
     0
 43
0.00258346323144
 10
23015.25822015543
 20
56795.64178385913
 10
23015.28576892634
 20
56795.62587856882
  0
LWPOLYLINE
  5
F709
330
1E
100
AcDbEntity
  8
DOWEL
100
AcDbPolyline
 90
        2
 70
     0
 43
0.00258346323144
 10
23015.45197989779
 20
56795.64178385913
 10
23015.4795286687
 20
56795.62587856882
  0
LWPOLYLINE
  5
F70A
330
1E
100
AcDbEntity
  8
DOWEL
100
AcDbPolyline
 90
        2
 70
     0
 43
0.00258346323144
 10
23015.25822015543
 20
56795.74512238838
 10
23015.28576892634
 20
56795.72921709808
  0
LWPOLYLINE
  5
F70B
330
1E
100
AcDbEntity
  8
DOWEL
100
AcDbPolyline
 90
        2
 70
     0
 43
0.00258346323144
 10
23015.45197989779
 20
56795.74512238838
 10
23015.4795286687
 20
56795.72921709808
  0
LWPOLYLINE
  5
F70C
330
1E
100
AcDbEntity
  8
DOWEL
100
AcDbPolyline
 90
        2
 70
     0
 43
0.00258346323144
 10
23015.25822015543
 20
56795.84846091763
 10
23015.28576892634
 20
56795.83255562733
  0
LWPOLYLINE
  5
F70D
330
1E
100
AcDbEntity
  8
DOWEL
100
AcDbPolyline
 90
        2
 70
     0
 43
0.00258346323144
 10
23015.45197989779
 20
56795.84846091763
 10
23015.4795286687
 20
56795.83255562733
  0
LWPOLYLINE
  5
F70E
330
1E
100
AcDbEntity
  8
DOWEL
100
AcDbPolyline
 90
        2
 70
     0
 43
0.00258346323144
 10
23015.25822015543
 20
56795.95179944689
 10
23015.28576892634
 20
56795.93589415659
  0
LWPOLYLINE
  5
F70F
330
1E
100
AcDbEntity
  8
DOWEL
100
AcDbPolyline
 90
        2
 70
     0
 43
0.00258346323144
 10
23015.45197989779
 20
56795.95179944689
 10
23015.4795286687
 20
56795.93589415659
  0
LWPOLYLINE
  5
F710
330
1E
100
AcDbEntity
  8
DOWEL
100
AcDbPolyline
 90
        2
 70
     0
 43
0.00258346323144
 10
23015.25822015543
 20
56796.05513797616
 10
23015.28576892634
 20
56796.03923268586
  0
LWPOLYLINE
  5
F711
330
1E
100
AcDbEntity
  8
DOWEL
100
AcDbPolyline
 90
        2
 70
     0
 43
0.00258346323144
 10
23015.45197989779
 20
56796.05513797616
 10
23015.4795286687
 20
56796.03923268586
  0
LWPOLYLINE
  5
F712
330
1E
100
AcDbEntity
  8
DOWEL
100
AcDbPolyline
 90
        2
 70
     0
 43
0.00258346323144
 10
23015.25822015543
 20
56796.15847650541
 10
23015.28576892634
 20
56796.14257121511
  0
LWPOLYLINE
  5
F713
330
1E
100
AcDbEntity
  8
DOWEL
100
AcDbPolyline
 90
        2
 70
     0
 43
0.00258346323144
 10
23015.45197989779
 20
56796.15847650541
 10
23015.4795286687
 20
56796.14257121511
  0
LWPOLYLINE
  5
F714
330
1E
100
AcDbEntity
  8
DOWEL
100
AcDbPolyline
 90
        2
 70
     0
 43
0.00258346323144
 10
23015.25822015543
 20
56796.26181503467
 10
23015.28576892634
 20
56796.24590974436
  0
LWPOLYLINE
  5
F715
330
1E
100
AcDbEntity
  8
DOWEL
100
AcDbPolyline
 90
        2
 70
     0
 43
0.00258346323144
 10
23015.45197989779
 20
56796.26181503467
 10
23015.4795286687
 20
56796.24590974436
  0
LWPOLYLINE
  5
F716
330
1E
100
AcDbEntity
  8
DOWEL
100
AcDbPolyline
 90
        2
 70
     0
 43
0.00258346323144
 10
23015.25822015543
 20
56796.36515356392
 10
23015.28576892634
 20
56796.34924827362
  0
LWPOLYLINE
  5
F717
330
1E
100
AcDbEntity
  8
DOWEL
100
AcDbPolyline
 90
        2
 70
     0
 43
0.00258346323144
 10
23015.45197989779
 20
56796.36515356392
 10
23015.4795286687
 20
56796.34924827362
  0
LWPOLYLINE
  5
F718
330
1E
100
AcDbEntity
  8
DOWEL
100
AcDbPolyline
 90
        2
 70
     0
 43
0.00258346323144
 10
23015.25822015543
 20
56796.46849209319
 10
23015.28576892634
 20
56796.45258680288
  0
LWPOLYLINE
  5
F719
330
1E
100
AcDbEntity
  8
DOWEL
100
AcDbPolyline
 90
        2
 70
     0
 43
0.00258346323144
 10
23015.45197989779
 20
56796.46849209319
 10
23015.4795286687
 20
56796.45258680288
  0
LWPOLYLINE
  5
F71A
330
1E
100
AcDbEntity
  8
DOWEL
100
AcDbPolyline
 90
        2
 70
     0
 43
0.00258346323144
 10
23015.25822015543
 20
56796.57183062245
 10
23015.28576892634
 20
56796.55592533213
  0
LWPOLYLINE
  5
F71B
330
1E
100
AcDbEntity
  8
DOWEL
100
AcDbPolyline
 90
        2
 70
     0
 43
0.00258346323144
 10
23015.45197989779
 20
56796.57183062245
 10
23015.4795286687
 20
56796.55592533213
  0
LWPOLYLINE
  5
F71C
330
1E
100
AcDbEntity
  8
DOWEL
100
AcDbPolyline
 90
        2
 70
     0
 43
0.00258346323144
 10
23015.25822015543
 20
56796.6751691517
 10
23015.28576892634
 20
56796.65926386139
  0
LWPOLYLINE
  5
F71D
330
1E
100
AcDbEntity
  8
DOWEL
100
AcDbPolyline
 90
        2
 70
     0
 43
0.00258346323144
 10
23015.45197989779
 20
56796.6751691517
 10
23015.4795286687
 20
56796.65926386139
  0
LWPOLYLINE
  5
F71E
330
1E
100
AcDbEntity
  8
DOWEL
100
AcDbPolyline
 90
        2
 70
     0
 43
0.00258346323144
 10
23015.25822015543
 20
56796.77850768096
 10
23015.28576892634
 20
56796.76260239065
  0
LWPOLYLINE
  5
F71F
330
1E
100
AcDbEntity
  8
DOWEL
100
AcDbPolyline
 90
        2
 70
     0
 43
0.00258346323144
 10
23015.45197989779
 20
56796.77850768096
 10
23015.4795286687
 20
56796.76260239065
  0
LWPOLYLINE
  5
F720
330
1E
100
AcDbEntity
  8
DOWEL
100
AcDbPolyline
 90
        2
 70
     0
 43
0.00258346323144
 10
23015.25822015543
 20
56796.88184621022
 10
23015.28576892634
 20
56796.86594091991
  0
LWPOLYLINE
  5
F721
330
1E
100
AcDbEntity
  8
DOWEL
100
AcDbPolyline
 90
        2
 70
     0
 43
0.00258346323144
 10
23015.45197989779
 20
56796.88184621022
 10
23015.4795286687
 20
56796.86594091991
  0
LWPOLYLINE
  5
F722
330
1E
100
AcDbEntity
  8
DOWEL
100
AcDbPolyline
 90
        2
 70
     0
 43
0.00258346323144
 10
23015.25822015543
 20
56796.98518473947
 10
23015.28576892634
 20
56796.96927944917
  0
LWPOLYLINE
  5
F723
330
1E
100
AcDbEntity
  8
DOWEL
100
AcDbPolyline
 90
        2
 70
     0
 43
0.00258346323144
 10
23015.45197989779
 20
56796.98518473947
 10
23015.4795286687
 20
56796.96927944917
  0
LWPOLYLINE
  5
F724
330
1E
100
AcDbEntity
  8
DOWEL
100
AcDbPolyline
 90
        2
 70
     0
 43
0.00258346323144
 10
23015.25822015543
 20
56797.08852326872
 10
23015.28576892634
 20
56797.07261797842
  0
LWPOLYLINE
  5
F725
330
1E
100
AcDbEntity
  8
DOWEL
100
AcDbPolyline
 90
        2
 70
     0
 43
0.00258346323144
 10
23015.45197989779
 20
56797.08852326872
 10
23015.4795286687
 20
56797.07261797842
  0
LWPOLYLINE
  5
F726
330
1E
100
AcDbEntity
  8
DOWEL
100
AcDbPolyline
 90
        2
 70
     0
 43
0.00258346323144
 10
23015.25822015543
 20
56797.19186179798
 10
23015.28576892634
 20
56797.17595650767
  0
LWPOLYLINE
  5
F727
330
1E
100
AcDbEntity
  8
DOWEL
100
AcDbPolyline
 90
        2
 70
     0
 43
0.00258346323144
 10
23015.45197989779
 20
56797.19186179798
 10
23015.4795286687
 20
56797.17595650767
  0
LWPOLYLINE
  5
F728
330
1E
100
AcDbEntity
  8
DOWEL
100
AcDbPolyline
 90
        2
 70
     0
 43
0.00258346323144
 10
23015.25822015543
 20
56797.29520032725
 10
23015.28576892634
 20
56797.27929503695
  0
LWPOLYLINE
  5
F729
330
1E
100
AcDbEntity
  8
DOWEL
100
AcDbPolyline
 90
        2
 70
     0
 43
0.00258346323144
 10
23015.45197989779
 20
56797.29520032725
 10
23015.4795286687
 20
56797.27929503695
  0
LWPOLYLINE
  5
F72A
330
1E
100
AcDbEntity
  8
DOWEL
100
AcDbPolyline
 90
        2
 70
     0
 43
0.00258346323144
 10
23015.25822015543
 20
56797.3985388565
 10
23015.28576892634
 20
56797.3826335662
  0
LWPOLYLINE
  5
F72B
330
1E
100
AcDbEntity
  8
DOWEL
100
AcDbPolyline
 90
        2
 70
     0
 43
0.00258346323144
 10
23015.45197989779
 20
56797.3985388565
 10
23015.4795286687
 20
56797.3826335662
  0
LWPOLYLINE
  5
F72C
330
1E
100
AcDbEntity
  8
DOWEL
100
AcDbPolyline
 90
        2
 70
     0
 43
0.00258346323144
 10
23015.25822015543
 20
56797.50187738576
 10
23015.28576892634
 20
56797.48597209545
  0
LWPOLYLINE
  5
F72D
330
1E
100
AcDbEntity
  8
DOWEL
100
AcDbPolyline
 90
        2
 70
     0
 43
0.00258346323144
 10
23015.45197989779
 20
56797.50187738576
 10
23015.4795286687
 20
56797.48597209545
  0
LWPOLYLINE
  5
F72E
330
1E
100
AcDbEntity
  8
DOWEL
100
AcDbPolyline
 90
        2
 70
     0
 43
0.00258346323144
 10
23015.25822015543
 20
56797.60521591501
 10
23015.28576892634
 20
56797.58931062471
  0
LWPOLYLINE
  5
F72F
330
1E
100
AcDbEntity
  8
DOWEL
100
AcDbPolyline
 90
        2
 70
     0
 43
0.00258346323144
 10
23015.45197989779
 20
56797.60521591501
 10
23015.4795286687
 20
56797.58931062471
  0
LWPOLYLINE
  5
F730
330
1E
100
AcDbEntity
  8
DOWEL
100
AcDbPolyline
 90
        2
 70
     0
 43
0.00258346323144
 10
23015.25822015543
 20
56797.70855444428
 10
23015.28576892634
 20
56797.69264915398
  0
LWPOLYLINE
  5
F731
330
1E
100
AcDbEntity
  8
DOWEL
100
AcDbPolyline
 90
        2
 70
     0
 43
0.00258346323144
 10
23015.45197989779
 20
56797.70855444428
 10
23015.4795286687
 20
56797.69264915398
  0
LWPOLYLINE
  5
F732
330
1E
100
AcDbEntity
  8
DOWEL
100
AcDbPolyline
 90
        2
 70
     0
 43
0.00258346323144
 10
23015.25822015543
 20
56797.81189297353
 10
23015.28576892634
 20
56797.79598768323
  0
LWPOLYLINE
  5
F733
330
1E
100
AcDbEntity
  8
DOWEL
100
AcDbPolyline
 90
        2
 70
     0
 43
0.00258346323144
 10
23015.45197989779
 20
56797.81189297353
 10
23015.4795286687
 20
56797.79598768323
  0
LWPOLYLINE
  5
F734
330
1E
100
AcDbEntity
  8
DOWEL
100
AcDbPolyline
 90
        2
 70
     0
 43
0.00258346323144
 10
23015.25822015543
 20
56797.91523150279
 10
23015.28576892634
 20
56797.89932621249
  0
LWPOLYLINE
  5
F735
330
1E
100
AcDbEntity
  8
DOWEL
100
AcDbPolyline
 90
        2
 70
     0
 43
0.00258346323144
 10
23015.45197989779
 20
56797.91523150279
 10
23015.4795286687
 20
56797.89932621249
  0
LWPOLYLINE
  5
F736
330
1E
100
AcDbEntity
  8
DOWEL
100
AcDbPolyline
 90
        2
 70
     0
 43
0.00258346323144
 10
23015.25822015543
 20
56798.01857003204
 10
23015.28576892634
 20
56798.00266474174
  0
LWPOLYLINE
  5
F737
330
1E
100
AcDbEntity
  8
DOWEL
100
AcDbPolyline
 90
        2
 70
     0
 43
0.00258346323144
 10
23015.45197989779
 20
56798.01857003204
 10
23015.4795286687
 20
56798.00266474174
  0
LWPOLYLINE
  5
F738
330
1E
100
AcDbEntity
  8
DOWEL
100
AcDbPolyline
 90
        2
 70
     0
 43
0.00258346323144
 10
23015.25822015543
 20
56798.12190856131
 10
23015.28576892634
 20
56798.106003271
  0
LWPOLYLINE
  5
F739
330
1E
100
AcDbEntity
  8
DOWEL
100
AcDbPolyline
 90
        2
 70
     0
 43
0.00258346323144
 10
23015.45197989779
 20
56798.12190856131
 10
23015.4795286687
 20
56798.106003271
  0
LWPOLYLINE
  5
F73A
330
1E
100
AcDbEntity
  8
DOWEL
100
AcDbPolyline
 90
        2
 70
     0
 43
0.00258346323144
 10
23015.25822015543
 20
56798.22524709057
 10
23015.28576892634
 20
56798.20934180026
  0
LWPOLYLINE
  5
F73B
330
1E
100
AcDbEntity
  8
DOWEL
100
AcDbPolyline
 90
        2
 70
     0
 43
0.00258346323144
 10
23015.45197989779
 20
56798.22524709057
 10
23015.4795286687
 20
56798.20934180026
  0
LWPOLYLINE
  5
F73C
330
1E
100
AcDbEntity
  8
DOWEL
100
AcDbPolyline
 90
        2
 70
     0
 43
0.00258346323144
 10
23015.25822015543
 20
56798.32858561982
 10
23015.28576892634
 20
56798.31268032951
  0
LWPOLYLINE
  5
F73D
330
1E
100
AcDbEntity
  8
DOWEL
100
AcDbPolyline
 90
        2
 70
     0
 43
0.00258346323144
 10
23015.45197989779
 20
56798.32858561982
 10
23015.4795286687
 20
56798.31268032951
  0
LWPOLYLINE
  5
F73E
330
1E
100
AcDbEntity
  8
DOWEL
100
AcDbPolyline
 90
        2
 70
     0
 43
0.00258346323144
 10
23015.25822015543
 20
56798.43192414907
 10
23015.28576892634
 20
56798.41601885877
  0
LWPOLYLINE
  5
F73F
330
1E
100
AcDbEntity
  8
DOWEL
100
AcDbPolyline
 90
        2
 70
     0
 43
0.00258346323144
 10
23015.45197989779
 20
56798.43192414907
 10
23015.4795286687
 20
56798.41601885877
  0
LWPOLYLINE
  5
F740
330
1E
100
AcDbEntity
  8
DOWEL
100
AcDbPolyline
 90
        2
 70
     0
 43
0.00258346323144
 10
23015.25822015543
 20
56798.53526267834
 10
23015.28576892634
 20
56798.51935738803
  0
LWPOLYLINE
  5
F741
330
1E
100
AcDbEntity
  8
DOWEL
100
AcDbPolyline
 90
        2
 70
     0
 43
0.00258346323144
 10
23015.45197989779
 20
56798.53526267834
 10
23015.4795286687
 20
56798.51935738803
  0
LWPOLYLINE
  5
F742
330
1E
100
AcDbEntity
  8
DOWEL
100
AcDbPolyline
 90
        2
 70
     0
 43
0.00258346323144
 10
23015.25822015543
 20
56798.63860120759
 10
23015.28576892634
 20
56798.62269591729
  0
LWPOLYLINE
  5
F743
330
1E
100
AcDbEntity
  8
DOWEL
100
AcDbPolyline
 90
        2
 70
     0
 43
0.00258346323144
 10
23015.45197989779
 20
56798.63860120759
 10
23015.4795286687
 20
56798.62269591729
  0
LWPOLYLINE
  5
F744
330
1E
100
AcDbEntity
  8
DOWEL
100
AcDbPolyline
 90
        2
 70
     0
 43
0.00258346323144
 10
23015.25822015543
 20
56798.74193973684
 10
23015.28576892634
 20
56798.72603444654
  0
LWPOLYLINE
  5
F745
330
1E
100
AcDbEntity
  8
DOWEL
100
AcDbPolyline
 90
        2
 70
     0
 43
0.00258346323144
 10
23015.45197989779
 20
56798.74193973684
 10
23015.4795286687
 20
56798.72603444654
  0
LWPOLYLINE
  5
F746
330
1E
100
AcDbEntity
  8
DOWEL
100
AcDbPolyline
 90
        2
 70
     0
 43
0.00258346323144
 10
23015.25822015543
 20
56798.8452782661
 10
23015.28576892634
 20
56798.82937297581
  0
LWPOLYLINE
  5
F747
330
1E
100
AcDbEntity
  8
DOWEL
100
AcDbPolyline
 90
        2
 70
     0
 43
0.00258346323144
 10
23015.45197989779
 20
56798.8452782661
 10
23015.4795286687
 20
56798.82937297581
  0
LWPOLYLINE
  5
F748
330
1E
100
AcDbEntity
  8
DOWEL
100
AcDbPolyline
 90
        2
 70
     0
 43
0.00258346323144
 10
23015.25822015543
 20
56798.94861679537
 10
23015.28576892634
 20
56798.93271150507
  0
LWPOLYLINE
  5
F749
330
1E
100
AcDbEntity
  8
DOWEL
100
AcDbPolyline
 90
        2
 70
     0
 43
0.00258346323144
 10
23015.45197989779
 20
56798.94861679537
 10
23015.4795286687
 20
56798.93271150507
  0
LWPOLYLINE
  5
F74A
330
1E
100
AcDbEntity
  8
DOWEL
100
AcDbPolyline
 90
        2
 70
     0
 43
0.00258346323144
 10
23015.25822015543
 20
56799.05195532462
 10
23015.28576892634
 20
56799.03605003432
  0
LWPOLYLINE
  5
F74B
330
1E
100
AcDbEntity
  8
DOWEL
100
AcDbPolyline
 90
        2
 70
     0
 43
0.00258346323144
 10
23015.45197989779
 20
56799.05195532462
 10
23015.4795286687
 20
56799.03605003432
  0
LWPOLYLINE
  5
F74C
330
1E
100
AcDbEntity
  8
DOWEL
100
AcDbPolyline
 90
        2
 70
     0
 43
0.00258346323144
 10
23015.25822015543
 20
56799.15529385388
 10
23015.28576892634
 20
56799.13938856357
  0
LWPOLYLINE
  5
F74D
330
1E
100
AcDbEntity
  8
DOWEL
100
AcDbPolyline
 90
        2
 70
     0
 43
0.00258346323144
 10
23015.45197989779
 20
56799.15529385388
 10
23015.4795286687
 20
56799.13938856357
  0
LWPOLYLINE
  5
F74E
330
1E
100
AcDbEntity
  8
DOWEL
100
AcDbPolyline
 90
        2
 70
     0
 43
0.00258346323144
 10
23015.25822015543
 20
56799.25863238313
 10
23015.28576892634
 20
56799.24272709283
  0
LWPOLYLINE
  5
F74F
330
1E
100
AcDbEntity
  8
DOWEL
100
AcDbPolyline
 90
        2
 70
     0
 43
0.00258346323144
 10
23015.45197989779
 20
56799.25863238313
 10
23015.4795286687
 20
56799.24272709283
  0
LWPOLYLINE
  5
F757
330
1E
100
AcDbEntity
  8
PAVEMENT
 62
    90
100
AcDbPolyline
 90
        2
 70
     0
 43
0.01033385292576
 10
23016.85066418567
 20
56794.08743683864
 10
23016.85066418567
 20
56795.61306040223
  0
LWPOLYLINE
  5
F75A
330
1E
100
AcDbEntity
  8
GRID
  6
Continuous
 62
     5
100
AcDbPolyline
 90
        2
 70
     0
 43
0.00516692646288
 10
23017.04442392803
 20
56792.12499528646
 10
23017.04442392803
 20
56795.72492764163
  0
LWPOLYLINE
  5
F76F
330
1E
100
AcDbEntity
  8
PAVEMENT
 62
     6
100
AcDbPolyline
 90
        2
 70
     0
 43
0.00516692646288
 10
23015.65581244113
 20
56794.89972582145
 10
23015.65581244113
 20
56798.02910589319
  0
LWPOLYLINE
  5
F771
330
1E
100
AcDbEntity
  8
GRID
  6
Continuous
 62
     5
100
AcDbPolyline
 90
        2
 70
     0
 43
0.00516692646288
 10
23015.55912496162
 20
56792.97288067221
 10
23015.55912496162
 20
56799.19901047336
  0
LWPOLYLINE
  5
FA5B
330
1E
100
AcDbEntity
  8
GRID
 62
     6
100
AcDbPolyline
 90
        2
 70
     0
 43
0.00516692646288
 10
23015.75249992065
 20
56795.88888307195
 10
23016.44170103173
 20
56796.28679351895
  0
LWPOLYLINE
  5
FB0A
330
1E
100
AcDbEntity
  8
GRID
 62
     6
100
AcDbPolyline
 90
        2
 70
     0
 43
0.00516692646288
 10
23015.75249992065
 20
56796.0103440458
 10
23015.92428774564
 20
56796.10952579279
  0
LWPOLYLINE
  5
FB20
330
1E
100
AcDbEntity
  8
GRID
 62
     6
100
AcDbPolyline
 90
        2
 70
     0
 43
0.00516692646288
 10
23015.75249992065
 20
56796.24899415654
 10
23016.28576835801
 20
56796.5568768324
  0
LWPOLYLINE
  5
FB2B
330
1E
100
AcDbEntity
  8
GRID
 62
     6
100
AcDbPolyline
 90
        2
 70
     0
 43
0.00516692646288
 10
23015.75249992065
 20
56796.3683192119
 10
23016.23409909338
 20
56796.64637062392
  0
LWPOLYLINE
  5
FB36
330
1E
100
AcDbEntity
  8
GRID
 62
     6
100
AcDbPolyline
 90
        2
 70
     0
 43
0.00516692646288
 10
23015.75249992065
 20
56796.48764426728
 10
23016.18242982875
 20
56796.73586441546
  0
LWPOLYLINE
  5
FB41
330
1E
100
AcDbEntity
  8
GRID
 62
     6
100
AcDbPolyline
 90
        2
 70
     0
 43
0.00516692646288
 10
23015.75249992065
 20
56796.60696932264
 10
23016.13076056412
 20
56796.82535820699
  0
LWPOLYLINE
  5
FB4C
330
1E
100
AcDbEntity
  8
GRID
 62
     6
100
AcDbPolyline
 90
        2
 70
     0
 43
0.00516692646288
 10
23015.75249992065
 20
56796.72629437802
 10
23016.07909129949
 20
56796.9148519985
  0
LWPOLYLINE
  5
FB57
330
1E
100
AcDbEntity
  8
GRID
 62
     6
100
AcDbPolyline
 90
        2
 70
     0
 43
0.00516692646288
 10
23015.75249992065
 20
56796.84561943338
 10
23016.02742203487
 20
56797.00434579003
  0
LWPOLYLINE
  5
FB62
330
1E
100
AcDbEntity
  8
GRID
 62
     6
100
AcDbPolyline
 90
        2
 70
     0
 43
0.00516692646288
 10
23015.75249992065
 20
56796.96494448876
 10
23015.97998604489
 20
56797.09628366383
  0
LWPOLYLINE
  5
FB6D
330
1E
100
AcDbEntity
  8
GRID
 62
     6
100
AcDbPolyline
 90
        2
 70
     0
 43
0.00516692646288
 10
23015.75249992065
 20
56797.08426954412
 10
23015.93427742738
 20
56797.18921883657
  0
LWPOLYLINE
  5
FB78
330
1E
100
AcDbEntity
  8
GRID
 62
     6
100
AcDbPolyline
 90
        2
 70
     0
 43
0.00516692646288
 10
23015.75249992065
 20
56797.2035945995
 10
23015.89115152908
 20
56797.28364514295
  0
LWPOLYLINE
  5
FB83
330
1E
100
AcDbEntity
  8
GRID
 62
     6
100
AcDbPolyline
 90
        2
 70
     0
 43
0.00516692646288
 10
23015.75249992065
 20
56797.32291965486
 10
23015.85062968698
 20
56797.37957490187
  0
LWPOLYLINE
  5
FB8E
330
1E
100
AcDbEntity
  8
GRID
 62
     6
100
AcDbPolyline
 90
        2
 70
     0
 43
0.00516692646288
 10
23015.75249992065
 20
56797.44224471024
 10
23015.81274009686
 20
56797.47702439218
  0
LWPOLYLINE
  5
FB99
330
1E
100
AcDbEntity
  8
GRID
 62
     6
100
AcDbPolyline
 90
        2
 70
     0
 43
0.00516692646288
 10
23015.75249992065
 20
56797.5615697656
 10
23015.77751817836
 20
56797.57601406342
  0
LWPOLYLINE
  5
FBCB
330
1E
100
AcDbEntity
  8
GRID
 62
     6
100
AcDbPolyline
 90
        2
 70
     0
 43
0.00516692646288
 10
23015.75249992065
 20
56795.77169393506
 10
23016.49244541652
 20
56796.19890166629
  0
LWPOLYLINE
  5
FBCC
330
1E
100
AcDbEntity
  8
GRID
 62
     6
100
AcDbPolyline
 90
        2
 70
     0
 43
0.00516692646288
 10
23015.75249992065
 20
56795.65450479819
 10
23016.54318980132
 20
56796.11100981364
  0
LWPOLYLINE
  5
FBD8
330
1E
100
AcDbEntity
  8
GRID
 62
     6
100
AcDbPolyline
 90
        2
 70
     0
 43
0.00516692646288
 10
23015.75249992065
 20
56795.5373156613
 10
23016.59393418611
 20
56796.02311796098
  0
LWPOLYLINE
  5
FBE3
330
1E
100
AcDbEntity
  8
GRID
 62
     6
100
AcDbPolyline
 90
        2
 70
     0
 43
0.00516692646288
 10
23015.8080455955
 20
56795.56938497165
 10
23016.59393418611
 20
56796.02311796098
  0
LWPOLYLINE
  5
FBE4
330
1E
100
AcDbEntity
  8
GRID
 62
     6
100
AcDbPolyline
 90
        2
 70
     0
 43
0.00516692646288
 10
23015.75249992065
 20
56795.42012652444
 10
23015.82314472654
 20
56795.46091332212
  0
LWPOLYLINE
  5
FBEF
330
1E
100
AcDbEntity
  8
GRID
 62
     6
100
AcDbPolyline
 90
        2
 70
     0
 43
0.00516692646288
 10
23016.06346122094
 20
56795.59966011487
 10
23016.6446785709
 20
56795.93522610832
  0
LWPOLYLINE
  5
FBFB
330
1E
100
AcDbEntity
  8
GRID
 62
     6
100
AcDbPolyline
 90
        2
 70
     0
 43
0.00516692646288
 10
23016.21521995105
 20
56795.57008892166
 10
23016.69542295569
 20
56795.84733425566
  0
LWPOLYLINE
  5
FC07
330
1E
100
AcDbEntity
  8
GRID
 62
     6
100
AcDbPolyline
 90
        2
 70
     0
 43
0.00516692646288
 10
23016.30867266442
 20
56795.506854734
 10
23016.74616734048
 20
56795.759442403
  0
LWPOLYLINE
  5
FC13
330
1E
100
AcDbEntity
  8
GRID
 62
     6
100
AcDbPolyline
 90
        2
 70
     0
 43
0.00516692646288
 10
23016.4459292883
 20
56795.351721609
 10
23016.85066418567
 20
56795.58539541095
  0
LWPOLYLINE
  5
FC1E
330
1E
100
AcDbEntity
  8
GRID
 62
     6
100
AcDbPolyline
 90
        2
 70
     0
 43
0.00516692646288
 10
23016.48476785312
 20
56795.25695592798
 10
23016.85066418567
 20
56795.46820627406
  0
LWPOLYLINE
  5
FC29
330
1E
100
AcDbEntity
  8
GRID
 62
     6
100
AcDbPolyline
 90
        2
 70
     0
 43
0.00516692646288
 10
23016.55887978344
 20
56795.06536619714
 10
23016.85066418567
 20
56795.23382800032
  0
LWPOLYLINE
  5
FC34
330
1E
100
AcDbEntity
  8
GRID
 62
     6
100
AcDbPolyline
 90
        2
 70
     0
 43
0.00516692646288
 10
23016.52242036451
 20
56795.16150547868
 10
23016.85066418567
 20
56795.35101713718
  0
LWPOLYLINE
  5
FC3F
330
1E
100
AcDbEntity
  8
GRID
 62
     6
100
AcDbPolyline
 90
        2
 70
     0
 43
0.00516692646288
 10
23016.62818764016
 20
56794.87100283311
 10
23016.85066418567
 20
56794.99944972656
  0
LWPOLYLINE
  5
FC4A
330
1E
100
AcDbEntity
  8
GRID
 62
     6
100
AcDbPolyline
 90
        2
 70
     0
 43
0.00516692646288
 10
23016.5941383657
 20
56794.96853361222
 10
23016.85066418567
 20
56795.11663886342
  0
LWPOLYLINE
  5
FC55
330
1E
100
AcDbEntity
  8
GRID
 62
     6
100
AcDbPolyline
 90
        2
 70
     0
 43
0.00516692646288
 10
23016.69262059935
 20
56794.6738249457
 10
23016.85066418567
 20
56794.76507145279
  0
LWPOLYLINE
  5
FC60
330
1E
100
AcDbEntity
  8
GRID
 62
     6
100
AcDbPolyline
 90
        2
 70
     0
 43
0.00516692646288
 10
23016.66101838466
 20
56794.77276853542
 10
23016.85066418567
 20
56794.88226058968
  0
LWPOLYLINE
  5
FC6D
330
1E
100
AcDbEntity
  8
GRID
 62
     6
100
AcDbPolyline
 90
        2
 70
     0
 43
0.00516692646288
 10
23015.75249992065
 20
56796.12966910116
 10
23016.33743762264
 20
56796.46738304087
  0
LWPOLYLINE
  5
FC6E
330
1E
100
AcDbEntity
  8
GRID
 62
     6
100
AcDbPolyline
 90
        2
 70
     0
 43
0.00516692646288
 10
23015.75249992065
 20
56796.0103440458
 10
23016.38910688727
 20
56796.37788924934
  0
LWPOLYLINE
  5
FC7F
330
1E
100
AcDbEntity
  8
GRID
 62
     6
100
AcDbPolyline
 90
        2
 70
     0
 43
0.00516692646288
 10
23016.395630269
 20
56795.43987059354
 10
23016.79691172528
 20
56795.67155055034
  0
LWPOLYLINE
  5
FC90
330
1E
100
AcDbEntity
  8
GRID
 62
     6
100
AcDbPolyline
 90
        2
 70
     0
 43
0.00516692646288
 10
23016.72298347722
 20
56794.57416582452
 10
23016.85066418567
 20
56794.64788231593
  0
LWPOLYLINE
  5
FC97
330
1E
100
AcDbEntity
  8
GRID
 62
     6
100
AcDbPolyline
 90
        2
 70
     0
 43
0.00516692646288
 10
23016.75209537181
 20
56794.47378444782
 10
23016.85066418567
 20
56794.53069317903
  0
LWPOLYLINE
  5
FC9E
330
1E
100
AcDbEntity
  8
GRID
 62
     6
100
AcDbPolyline
 90
        2
 70
     0
 43
0.00516692646288
 10
23016.77994376155
 20
56794.37267358625
 10
23016.85066418567
 20
56794.41350404217
  0
LWPOLYLINE
  5
FCA5
330
1E
100
AcDbEntity
  8
GRID
 62
     6
100
AcDbPolyline
 90
        2
 70
     0
 43
0.00516692646288
 10
23016.80651521079
 20
56794.27082548276
 10
23016.85066418567
 20
56794.29631490529
  0
LWPOLYLINE
  5
FD0D
330
1E
100
AcDbEntity
  8
GRID
 62
     6
100
AcDbPolyline
 90
        2
 70
     0
 43
0.00516692646288
 10
23015.75249992065
 20
56796.8992456329
 10
23016.85066418567
 20
56794.99716933083
  0
LWPOLYLINE
  5
FD42
330
1E
100
AcDbEntity
  8
GRID
 62
     5
100
AcDbPolyline
 90
        2
 70
     0
 43
0.00516692646288
 10
23015.75249992065
 20
56796.69902723246
 10
23016.85066418567
 20
56794.79695093039
  0
LWPOLYLINE
  5
FD43
330
1E
100
AcDbEntity
  8
GRID
 62
     5
100
AcDbPolyline
 90
        2
 70
     0
 43
0.00516692646288
 10
23015.75249992065
 20
56797.09946403334
 10
23016.85066418567
 20
56795.19738773127
  0
LWPOLYLINE
  5
FD44
330
1E
100
AcDbEntity
  8
GRID
 62
     6
100
AcDbPolyline
 90
        2
 70
     0
 43
0.00516692646288
 10
23015.75249992065
 20
56797.29968243377
 10
23016.85066418567
 20
56795.3976061317
  0
LWPOLYLINE
  5
FD45
330
1E
100
AcDbEntity
  8
GRID
 62
     6
100
AcDbPolyline
 90
        2
 70
     0
 43
0.00516692646288
 10
23015.75249992065
 20
56797.49990083421
 10
23015.94595754485
 20
56797.16482239998
  0
LWPOLYLINE
  5
FDB1
330
1E
100
AcDbEntity
  8
GRID
 62
     6
100
AcDbPolyline
 90
        2
 70
     0
 43
0.00516692646288
 10
23016.83631434606
 20
56795.62267918345
 10
23016.85066418567
 20
56795.59782453214
  0
LWPOLYLINE
  5
FE29
330
1E
100
AcDbEntity
  8
GRID
 62
     6
100
AcDbPolyline
 90
        2
 70
     0
 43
0.00516692646288
 10
23016.51797828755
 20
56795.17296140847
 10
23016.85066418567
 20
56794.59673252996
  0
LWPOLYLINE
  5
FE64
330
1E
100
AcDbEntity
  8
GRID
 62
     6
100
AcDbPolyline
 90
        2
 70
     0
 43
0.00516692646288
 10
23015.75249992065
 20
56795.69793523029
 10
23015.86184493765
 20
56795.50854410527
  0
LWPOLYLINE
  5
FE65
330
1E
100
AcDbEntity
  8
GRID
 62
     6
100
AcDbPolyline
 90
        2
 70
     0
 43
0.00516692646288
 10
23015.75249992065
 20
56795.49771682985
 10
23015.7990582508
 20
56795.41707543652
  0
LWPOLYLINE
  5
FE6A
330
1E
100
AcDbEntity
  8
GRID
 62
     6
100
AcDbPolyline
 90
        2
 70
     0
 43
0.00516692646288
 10
23015.75249992065
 20
56796.49880883204
 10
23016.33844637158
 20
56795.4839198085
  0
LWPOLYLINE
  5
FE6B
330
1E
100
AcDbEntity
  8
GRID
 62
     5
100
AcDbPolyline
 90
        2
 70
     0
 43
0.00516692646288
 10
23015.75249992065
 20
56796.2985904316
 10
23016.16174508926
 20
56795.58975700682
  0
LWPOLYLINE
  5
FE6C
330
1E
100
AcDbEntity
  8
GRID
 62
     6
100
AcDbPolyline
 90
        2
 70
     0
 43
0.00516692646288
 10
23015.75249992065
 20
56796.09837203114
 10
23016.04163168793
 20
56795.59758112015
  0
LWPOLYLINE
  5
FE6D
330
1E
100
AcDbEntity
  8
GRID
 62
     5
100
AcDbPolyline
 90
        2
 70
     0
 43
0.00516692646288
 10
23015.75249992065
 20
56795.89815363073
 10
23015.94338325182
 20
56795.56753400282
  0
LWPOLYLINE
  5
FED6
330
1E
100
AcDbEntity
  8
GRID
  6
Continuous
100
AcDbPolyline
 90
        2
 70
     0
 43
0.00516692646288
 10
23015.75249992065
 20
56795.99551606638
 10
23015.17141308524
 20
56795.99551606638
  0
LWPOLYLINE
  5
FF12
330
1E
100
AcDbEntity
  8
PAVEMENT
100
AcDbPolyline
 90
        2
 70
     1
 43
0.00775038969432
 10
23016.92900768965
 20
56793.78018542523
 42
-1.0
 10
23016.92900768965
 20
56793.78793581492
 42
-1.0
  0
LWPOLYLINE
  5
FF13
330
1E
100
AcDbEntity
  8
PAVEMENT
100
AcDbPolyline
 90
        2
 70
     1
 43
0.00775038969432
 10
23016.92254903157
 20
56793.87454972092
 42
-1.0
 10
23016.92254903157
 20
56793.88230011061
 42
-1.0
  0
LWPOLYLINE
  5
FF18
330
1E
100
AcDbEntity
  8
PAVEMENT
100
AcDbPolyline
 90
        2
 70
     1
 43
0.00775038969432
 10
23016.83126666406
 20
56794.47797440222
 42
-1.0
 10
23016.83126666406
 20
56794.48572479191
 42
-1.0
  0
LWPOLYLINE
  5
FF1A
330
1E
100
AcDbEntity
  8
PAVEMENT
100
AcDbPolyline
 90
        2
 70
     1
 43
0.00775038969432
 10
23016.83341955008
 20
56794.85005415989
 42
-1.0
 10
23016.83341955008
 20
56794.85780454959
 42
-1.0
  0
LWPOLYLINE
  5
FF26
330
1E
100
AcDbEntity
  8
PAVEMENT
100
AcDbPolyline
 90
        2
 70
     1
 43
0.00387519484716
 10
23016.93649189679
 20
56793.71216485145
 42
1.0
 10
23016.93649189679
 20
56793.7082896566
 42
1.0
  0
LWPOLYLINE
  5
FF2E
330
1E
100
AcDbEntity
  8
PAVEMENT
100
AcDbPolyline
 90
        2
 70
     1
 43
0.00387519484716
 10
23016.84110528344
 20
56794.16248189983
 42
1.0
 10
23016.84110528344
 20
56794.15860670499
 42
1.0
  0
LWPOLYLINE
  5
FF31
330
1E
100
AcDbEntity
  8
PAVEMENT
100
AcDbPolyline
 90
        2
 70
     1
 43
0.00775038969432
 10
23016.78522159303
 20
56794.43196832226
 42
-1.0
 10
23016.78522159303
 20
56794.43971871195
 42
-1.0
  0
LWPOLYLINE
  5
FF3A
330
1E
100
AcDbEntity
  8
PAVEMENT
100
AcDbPolyline
 90
        2
 70
     1
 43
0.00775038969432
 10
23016.75594234308
 20
56794.5155003001
 42
-1.0
 10
23016.75594234308
 20
56794.52325068979
 42
-1.0
  0
LWPOLYLINE
  5
FF42
330
1E
100
AcDbEntity
  8
PAVEMENT
100
AcDbPolyline
 90
        2
 70
     1
 43
0.00387519484716
 10
23016.72697626151
 20
56794.59599848804
 42
1.0
 10
23016.72697626151
 20
56794.5921232932
 42
1.0
  0
LWPOLYLINE
  5
FF4A
330
1E
100
AcDbEntity
  8
PAVEMENT
100
AcDbPolyline
 90
        2
 70
     1
 43
0.00387519484716
 10
23016.83978748927
 20
56794.6325975505
 42
1.0
 10
23016.83978748927
 20
56794.62872235564
 42
1.0
  0
LWPOLYLINE
  5
FF4B
330
1E
100
AcDbEntity
  8
PAVEMENT
100
AcDbPolyline
 90
        2
 70
     1
 43
0.00775038969432
 10
23016.82089577564
 20
56794.3337426167
 42
-1.0
 10
23016.82089577564
 20
56794.34149300639
 42
-1.0
  0
LWPOLYLINE
  5
FF4C
330
1E
100
AcDbEntity
  8
PAVEMENT
100
AcDbPolyline
 90
        2
 70
     1
 43
0.00775038969432
 10
23016.67195309812
 20
56794.83591985243
 42
-1.0
 10
23016.67195309812
 20
56794.84367024212
 42
-1.0
  0
LWPOLYLINE
  5
FF4D
330
1E
100
AcDbEntity
  8
PAVEMENT
100
AcDbPolyline
 90
        2
 70
     1
 43
0.00775038969432
 10
23016.6354177611
 20
56794.91907535582
 42
-1.0
 10
23016.6354177611
 20
56794.92682574553
 42
-1.0
  0
LWPOLYLINE
  5
FF4E
330
1E
100
AcDbEntity
  8
PAVEMENT
100
AcDbPolyline
 90
        2
 70
     1
 43
0.00775038969432
 10
23016.59537408101
 20
56795.00217675643
 42
-1.0
 10
23016.59537408101
 20
56795.00992714612
 42
-1.0
  0
LWPOLYLINE
  5
FF56
330
1E
100
AcDbEntity
  8
PAVEMENT
100
AcDbPolyline
 90
        2
 70
     1
 43
0.00387519484716
 10
23016.56335692351
 20
56795.08125899835
 42
1.0
 10
23016.56335692351
 20
56795.07738380351
 42
1.0
  0
LWPOLYLINE
  5
FF57
330
1E
100
AcDbEntity
  8
PAVEMENT
100
AcDbPolyline
 90
        2
 70
     1
 43
0.00775038969432
 10
23016.49850166222
 20
56795.31932086851
 42
-1.0
 10
23016.49850166222
 20
56795.3270712582
 42
-1.0
  0
LWPOLYLINE
  5
FF58
330
1E
100
AcDbEntity
  8
PAVEMENT
100
AcDbPolyline
 90
        2
 70
     1
 43
0.00775038969432
 10
23016.44820264291
 20
56795.41909543759
 42
-1.0
 10
23016.44820264291
 20
56795.4268458273
 42
-1.0
  0
LWPOLYLINE
  5
FF59
330
1E
100
AcDbEntity
  8
PAVEMENT
100
AcDbPolyline
 90
        2
 70
     1
 43
0.00775038969432
 10
23016.37364420464
 20
56795.49323824007
 42
-1.0
 10
23016.37364420464
 20
56795.50098862976
 42
-1.0
  0
LWPOLYLINE
  5
FF61
330
1E
100
AcDbEntity
  8
PAVEMENT
100
AcDbPolyline
 90
        2
 70
     1
 43
0.00387519484716
 10
23016.90128052785
 20
56795.59114325258
 42
1.0
 10
23016.90128052785
 20
56795.58726805774
 42
1.0
  0
LWPOLYLINE
  5
FF62
330
1E
100
AcDbEntity
  8
PAVEMENT
100
AcDbPolyline
 90
        2
 70
     1
 43
0.00775038969432
 10
23016.549246047
 20
56795.23142901585
 42
-1.0
 10
23016.549246047
 20
56795.23917940556
 42
-1.0
  0
LWPOLYLINE
  5
FF6A
330
1E
100
AcDbEntity
  8
PAVEMENT
100
AcDbPolyline
 90
        2
 70
     1
 43
0.00387519484716
 10
23016.1204042577
 20
56795.61437279056
 42
1.0
 10
23016.1204042577
 20
56795.61049759571
 42
1.0
  0
LWPOLYLINE
  5
FF6B
330
1E
100
AcDbEntity
  8
PAVEMENT
100
AcDbPolyline
 90
        2
 70
     1
 43
0.00387519484716
 10
23016.31933092652
 20
56795.50457560321
 42
1.0
 10
23016.31933092652
 20
56795.50070040837
 42
1.0
  0
LWPOLYLINE
  5
FF7C
330
1E
100
AcDbEntity
  8
PAVEMENT
100
AcDbPolyline
 90
        2
 70
     1
 43
0.00775038969432
 10
23015.68960059566
 20
56795.31841502144
 42
-1.0
 10
23015.68960059566
 20
56795.32616541114
 42
-1.0
  0
LWPOLYLINE
  5
FF7E
330
1E
100
AcDbEntity
  8
PAVEMENT
100
AcDbPolyline
 90
        2
 70
     1
 43
0.00775038969432
 10
23015.77700776832
 20
56795.40453046248
 42
-1.0
 10
23015.77700776832
 20
56795.41228085217
 42
-1.0
  0
LWPOLYLINE
  5
FF99
330
1E
100
AcDbEntity
  8
PAVEMENT
100
AcDbPolyline
 90
        2
 70
     1
 43
0.00387519484716
 10
23015.79908232565
 20
56795.43992981102
 42
1.0
 10
23015.79908232565
 20
56795.43605461618
 42
1.0
  0
LWPOLYLINE
  5
FFA4
330
1E
100
AcDbEntity
  8
PAVEMENT
100
AcDbPolyline
 90
        2
 70
     1
 43
0.00775038969432
 10
23015.80407387132
 20
56795.50462213232
 42
-1.0
 10
23015.80407387132
 20
56795.51237252201
 42
-1.0
  0
LWPOLYLINE
  5
FFA5
330
1E
100
AcDbEntity
  8
PAVEMENT
100
AcDbPolyline
 90
        2
 70
     1
 43
0.00775038969432
 10
23015.88378997344
 20
56795.55986175055
 42
-1.0
 10
23015.88378997344
 20
56795.56761214024
 42
-1.0
  0
LWPOLYLINE
  5
FFA6
330
1E
100
AcDbEntity
  8
PAVEMENT
100
AcDbPolyline
 90
        2
 70
     1
 43
0.00775038969432
 10
23015.97048708398
 20
56795.60991635066
 42
-1.0
 10
23015.97048708398
 20
56795.61766674036
 42
-1.0
  0
LWPOLYLINE
  5
FFA7
330
1E
100
AcDbEntity
  8
PAVEMENT
100
AcDbPolyline
 90
        2
 70
     1
 43
0.00775038969432
 10
23016.05718419453
 20
56795.65997095077
 42
-1.0
 10
23016.05718419453
 20
56795.66772134046
 42
-1.0
  0
LWPOLYLINE
  5
FFA8
330
1E
100
AcDbEntity
  8
PAVEMENT
100
AcDbPolyline
 90
        2
 70
     1
 43
0.00775038969432
 10
23016.19462568986
 20
56795.62213369822
 42
-1.0
 10
23016.19462568986
 20
56795.62988408791
 42
-1.0
  0
LWPOLYLINE
  5
FFA9
330
1E
100
AcDbEntity
  8
PAVEMENT
100
AcDbPolyline
 90
        2
 70
     1
 43
0.00775038969432
 10
23016.26087085404
 20
56795.56481282714
 42
-1.0
 10
23016.26087085404
 20
56795.57256321683
 42
-1.0
  0
LWPOLYLINE
  5
1003E
330
1E
100
AcDbEntity
  8
PAVEMENT
100
AcDbPolyline
 90
        2
 70
     1
 43
0.00387519484716
 10
23015.81888887985
 20
56797.42446014647
 42
1.0
 10
23015.81888887985
 20
56797.42058495163
 42
1.0
  0
LWPOLYLINE
  5
10046
330
1E
100
AcDbEntity
  8
PAVEMENT
100
AcDbPolyline
 90
        2
 70
     1
 43
0.00387519484716
 10
23015.84989043862
 20
56797.35858183407
 42
1.0
 10
23015.84989043862
 20
56797.35470663923
 42
1.0
  0
LWPOLYLINE
  5
1004E
330
1E
100
AcDbEntity
  8
PAVEMENT
100
AcDbPolyline
 90
        2
 70
     1
 43
0.00387519484716
 10
23015.89294815915
 20
56797.2707440842
 42
1.0
 10
23015.89294815915
 20
56797.26686888936
 42
1.0
  0
LWPOLYLINE
  5
10051
330
1E
100
AcDbEntity
  8
PAVEMENT
100
AcDbPolyline
 90
        2
 70
     1
 43
0.00775038969432
 10
23015.77928716342
 20
56797.38045037988
 42
-1.0
 10
23015.77928716342
 20
56797.38820076957
 42
-1.0
  0
LWPOLYLINE
  5
10053
330
1E
100
AcDbEntity
  8
PAVEMENT
100
AcDbPolyline
 90
        2
 70
     1
 43
0.00775038969432
 10
23015.69747749443
 20
56797.69261885368
 42
-1.0
 10
23015.69747749443
 20
56797.70036924337
 42
-1.0
  0
LWPOLYLINE
  5
10054
330
1E
100
AcDbEntity
  8
PAVEMENT
100
AcDbPolyline
 90
        2
 70
     1
 43
0.00775038969432
 10
23015.68154613783
 20
56797.80241604101
 42
-1.0
 10
23015.68154613783
 20
56797.81016643072
 42
-1.0
  0
LWPOLYLINE
  5
1005C
330
1E
100
AcDbEntity
  8
PAVEMENT
100
AcDbPolyline
 90
        2
 70
     1
 43
0.00387519484716
 10
23015.67077032125
 20
56797.90541488474
 42
1.0
 10
23015.67077032125
 20
56797.90153968989
 42
1.0
  0
LWPOLYLINE
  5
10064
330
1E
100
AcDbEntity
  8
PAVEMENT
100
AcDbPolyline
 90
        2
 70
     1
 43
0.00387519484716
 10
23015.66258935434
 20
56797.9691403111
 42
1.0
 10
23015.66258935434
 20
56797.96526511626
 42
1.0
  0
LWPOLYLINE
  5
1006C
330
1E
100
AcDbEntity
  8
PAVEMENT
100
AcDbPolyline
 90
        2
 70
     1
 43
0.00387519484716
 10
23015.77626173653
 20
56797.51402020516
 42
1.0
 10
23015.77626173653
 20
56797.51014501032
 42
1.0
  0
LWPOLYLINE
  5
1006F
330
1E
100
AcDbEntity
  8
PAVEMENT
100
AcDbPolyline
 90
        2
 70
     1
 43
0.00775038969432
 10
23016.71623882483
 20
56794.73295779757
 42
-1.0
 10
23016.71623882483
 20
56794.74070818728
 42
-1.0
  0
LWPOLYLINE
  5
10070
330
1E
100
AcDbEntity
  8
2 foot edge
 62
     5
100
AcDbPolyline
 90
        2
 70
     0
 43
0.00516692646288
 10
23015.55912496162
 20
56797.1322398882
 10
23015.36536521926
 20
56797.1322398882
  0
LWPOLYLINE
  5
10071
330
1E
100
AcDbEntity
  8
DIM
  6
DASHED
 48
0.5
100
AcDbPolyline
 90
        2
 70
     1
 43
0.02
 10
23015.7106690051
 20
56793.18695811821
 42
0.9999999999999998
 10
23015.41348430697
 20
56792.75880322619
 42
0.9999999999999998
  0
LINE
  5
10072
330
1E
100
AcDbEntity
  8
DIM
100
AcDbLine
 10
23015.77309898311
 20
56792.70545361949
 30
0.0
 11
23016.08303795682
 21
56792.31267022347
 31
0.0
  0
LINE
  5
10073
330
1E
100
AcDbEntity
  8
DIM
100
AcDbLine
 10
23016.08303795682
 20
56792.31267022347
 30
0.0
 11
23016.19574920391
 21
56792.31267022347
 31
0.0
  0
TEXT
  5
10074
330
1E
100
AcDbEntity
  8
DIM
100
AcDbText
 10
23016.27591486705
 20
56792.28380868031
 30
0.0
 40
0.08
  1
SEE EDGE
100
AcDbText
  0
SOLID
  5
10075
330
1E
100
AcDbEntity
  8
DIM
100
AcDbTrace
 10
23015.82637169293
 20
56792.67262847925
 30
0.0
 11
23015.79216479718
 21
56792.64574891958
 31
0.0
 12
23015.72862956609
 22
56792.76180938666
 32
0.0
 13
23015.72862956609
 23
56792.76180938666
 33
0.0
  0
LINE
  5
10076
330
1E
100
AcDbEntity
  8
DIM
100
AcDbLine
 10
23015.39023734741
 20
56797.15884102099
 30
0.0
 11
23014.5067407371
 21
56797.94017218856
 31
0.0
  0
LINE
  5
10077
330
1E
100
AcDbEntity
  8
DIM
100
AcDbLine
 10
23014.5067407371
 20
56797.94017218856
 30
0.0
 11
23014.35421306792
 21
56797.94017218856
 31
0.0
  0
TEXT
  5
10079
330
1E
100
AcDbEntity
  8
DIM
100
AcDbText
 10
23012.82337597467
 20
56797.77070509284
 30
0.0
 40
0.08
  1
AT THE END OF EACH DAY'S
100
AcDbText
  0
TEXT
  5
1007A
330
1E
100
AcDbEntity
  8
DIM
100
AcDbText
 10
23013.25310539983
 20
56797.64547148359
 30
0.0
 40
0.08
  1
PAVING AS NEEDED
100
AcDbText
  0
SOLID
  5
1007B
330
1E
100
AcDbEntity
  8
DIM
100
AcDbTrace
 10
23015.34208387523
 20
56797.23922627317
 30
0.0
 11
23015.3131476462
 21
56797.20674062875
 31
0.0
 12
23015.42507269399
 22
56797.13617476388
 32
0.0
 13
23015.42507269399
 23
56797.13617476388
 33
0.0
  0
LWPOLYLINE
  5
1007C
330
1E
100
AcDbEntity
  8
GRID
  6
Continuous
100
AcDbPolyline
 90
        2
 70
     0
 43
0.00516692646288
 10
23015.36536521926
 20
56797.1322398882
 10
23015.17141308524
 20
56797.1322398882
  0
HATCH
  5
10082
330
1E
100
AcDbEntity
  8
island
100
AcDbHatch
 10
0.0
 20
0.0
 30
0.0
210
0.0
220
0.0
230
1.0
  2
SOLID
 70
     1
 71
     0
 91
        1
 92
        7
 72
     1
 73
     1
 93
        5
 10
23015.79997297094
 20
56796.59742552315
 42
0.7673269879789978
 10
23015.55893256995
 20
56796.53283894237
 42
0.0
 10
23015.55893256995
 20
56795.97002047894
 42
-0.1781550104968556
 10
23016.07894181731
 20
56796.11140319178
 42
0.004780760137139
 10
23016.00606859823
 20
56796.24045742546
 42
0.0
 97
        0
 75
     0
 76
     1
 47
2.82412626832018
 98
        1
 10
23015.86409952245
 20
56796.35296876031
450
        0
451
        0
460
0.0
461
0.0
452
        1
462
1.0
453
        2
463
0.0
 63
     5
421
      255
463
1.0
 63
     7
421
 16777215
470
LINEAR
1001
ACAD
1010
0.0
1020
0.0
1030
0.0
  0
HATCH
  5
10088
330
1E
100
AcDbEntity
  8
island
100
AcDbHatch
 10
0.0
 20
0.0
 30
0.0
210
0.0
220
0.0
230
1.0
  2
SOLID
 70
     1
 71
     0
 91
        1
 92
        7
 72
     1
 73
     1
 93
        5
 10
23016.07894181731
 20
56796.11140319178
 42
0.0047807601371384
 10
23016.00606859823
 20
56796.24045742546
 42
0.0
 10
23015.79997297094
 20
56796.59742552315
 42
0.767326987978997
 10
23015.55893256995
 20
56796.53283894237
 42
0.0
 10
23015.55893256995
 20
56795.97002047894
 42
-0.1781550104968557
 97
        0
 75
     0
 76
     1
 47
2.82412626832018
 98
        1
 10
23015.75214944909
 20
56796.25565831193
450
        0
451
        0
460
0.0
461
0.0
452
        1
462
1.0
453
        2
463
0.0
 63
     5
421
      255
463
1.0
 63
     7
421
 16777215
470
LINEAR
1001
ACAD
1010
0.0
1020
0.0
1030
0.0
  0
TEXT
  5
100A4
330
1E
100
AcDbEntity
  8
DIM
100
AcDbText
 10
23013.6038518468
 20
56797.8979594567
 30
0.0
 40
0.08
  1
TYPE E JOINT
100
AcDbText
  0
TEXT
  5
100A5
330
1E
100
AcDbEntity
  8
DIM
100
AcDbText
 10
23016.27591486705
 20
56792.15655431645
 30
0.0
 40
0.08
  1
DETAIL 1
100
AcDbText
  0
LWPOLYLINE
  5
100B9
330
1E
100
AcDbEntity
  8
PAVEMENT
100
AcDbPolyline
 90
        2
 70
     1
 43
0.00775038969432
 10
23015.58366786232
 20
56798.21212751895
 42
-1.0
 10
23015.58366786232
 20
56798.21987790864
 42
-1.0
  0
LWPOLYLINE
  5
100BB
330
1E
100
AcDbEntity
  8
PAVEMENT
100
AcDbPolyline
 90
        2
 70
     1
 43
0.00775038969432
 10
23015.58366786232
 20
56798.31546604821
 42
-1.0
 10
23015.58366786232
 20
56798.3232164379
 42
-1.0
  0
LWPOLYLINE
  5
100BC
330
1E
100
AcDbEntity
  8
PAVEMENT
100
AcDbPolyline
 90
        2
 70
     1
 43
0.00775038969432
 10
23015.57677862703
 20
56798.41880457746
 42
-1.0
 10
23015.57677862703
 20
56798.42655496715
 42
-1.0
  0
LWPOLYLINE
  5
100BD
330
1E
100
AcDbEntity
  8
PAVEMENT
100
AcDbPolyline
 90
        2
 70
     1
 43
0.00775038969432
 10
23015.57677862703
 20
56798.52214310671
 42
-1.0
 10
23015.57677862703
 20
56798.5298934964
 42
-1.0
  0
LWPOLYLINE
  5
100C3
330
1E
100
AcDbEntity
  8
PAVEMENT
100
AcDbPolyline
 90
        2
 70
     1
 43
0.00775038969432
 10
23015.58366786232
 20
56798.10878898969
 42
-1.0
 10
23015.58366786232
 20
56798.11653937938
 42
-1.0
  0
LWPOLYLINE
  5
100C4
330
1E
100
AcDbEntity
  8
PAVEMENT
100
AcDbPolyline
 90
        2
 70
     1
 43
0.00387519484716
 10
23015.57376458659
 20
56798.63129442825
 42
1.0
 10
23015.57376458659
 20
56798.62741923341
 42
1.0
  0
LWPOLYLINE
  5
100C5
330
1E
100
AcDbEntity
  8
PAVEMENT
100
AcDbPolyline
 90
        2
 70
     1
 43
0.00387519484716
 10
23015.57204227777
 20
56798.7346329575
 42
1.0
 10
23015.57204227777
 20
56798.73075776266
 42
1.0
  0
LWPOLYLINE
  5
100C6
330
1E
100
AcDbEntity
  8
PAVEMENT
100
AcDbPolyline
 90
        2
 70
     1
 43
0.00387519484716
 10
23015.56945881454
 20
56798.83797148677
 42
1.0
 10
23015.56945881454
 20
56798.83409629192
 42
1.0
  0
LWPOLYLINE
  5
100C7
330
1E
100
AcDbEntity
  8
PAVEMENT
100
AcDbPolyline
 90
        2
 70
     1
 43
0.00387519484716
 10
23015.5664447741
 20
56798.94131001603
 42
1.0
 10
23015.5664447741
 20
56798.93743482117
 42
1.0
  0
LWPOLYLINE
  5
100C8
330
1E
100
AcDbEntity
  8
PAVEMENT
100
AcDbPolyline
 90
        2
 70
     1
 43
0.00387519484716
 10
23015.56424230953
 20
56799.04464854528
 42
1.0
 10
23015.56424230953
 20
56799.04077335044
 42
1.0
  0
LWPOLYLINE
  5
100D1
330
1E
100
AcDbEntity
  8
PAVEMENT
100
AcDbPolyline
 90
        2
 70
     1
 43
0.00775038969432
 10
23015.5842243658
 20
56794.90622936897
 42
-1.0
 10
23015.5842243658
 20
56794.91397975866
 42
-1.0
  0
LWPOLYLINE
  5
100D2
330
1E
100
AcDbEntity
  8
PAVEMENT
100
AcDbPolyline
 90
        2
 70
     1
 43
0.00387519484716
 10
23015.57733513052
 20
56794.08404219556
 42
1.0
 10
23015.57733513052
 20
56794.08016700072
 42
1.0
  0
LWPOLYLINE
  5
100D3
330
1E
100
AcDbEntity
  8
PAVEMENT
100
AcDbPolyline
 90
        2
 70
     1
 43
0.00775038969432
 10
23015.5842243658
 20
56794.80289083972
 42
-1.0
 10
23015.5842243658
 20
56794.81064122941
 42
-1.0
  0
LWPOLYLINE
  5
100D4
330
1E
100
AcDbEntity
  8
PAVEMENT
100
AcDbPolyline
 90
        2
 70
     1
 43
0.00775038969432
 10
23015.5842243658
 20
56794.69955231047
 42
-1.0
 10
23015.5842243658
 20
56794.70730270016
 42
-1.0
  0
LWPOLYLINE
  5
100D5
330
1E
100
AcDbEntity
  8
PAVEMENT
100
AcDbPolyline
 90
        2
 70
     1
 43
0.00775038969432
 10
23015.5842243658
 20
56794.5962137812
 42
-1.0
 10
23015.5842243658
 20
56794.6039641709
 42
-1.0
  0
LWPOLYLINE
  5
100D6
330
1E
100
AcDbEntity
  8
PAVEMENT
100
AcDbPolyline
 90
        2
 70
     1
 43
0.00775038969432
 10
23015.5842243658
 20
56794.49287525194
 42
-1.0
 10
23015.5842243658
 20
56794.50062564163
 42
-1.0
  0
LWPOLYLINE
  5
100D7
330
1E
100
AcDbEntity
  8
PAVEMENT
100
AcDbPolyline
 90
        2
 70
     1
 43
0.00775038969432
 10
23015.5842243658
 20
56794.38953672269
 42
-1.0
 10
23015.5842243658
 20
56794.39728711238
 42
-1.0
  0
LWPOLYLINE
  5
100D8
330
1E
100
AcDbEntity
  8
PAVEMENT
100
AcDbPolyline
 90
        2
 70
     1
 43
0.00775038969432
 10
23015.57948801654
 20
56794.28533703902
 42
-1.0
 10
23015.57948801654
 20
56794.29308742871
 42
-1.0
  0
LWPOLYLINE
  5
100D9
330
1E
100
AcDbEntity
  8
PAVEMENT
100
AcDbPolyline
 90
        2
 70
     1
 43
0.00775038969432
 10
23015.57948801654
 20
56794.18199850976
 42
-1.0
 10
23015.57948801654
 20
56794.18974889945
 42
-1.0
  0
LWPOLYLINE
  5
100DB
330
1E
100
AcDbEntity
  8
PAVEMENT
100
AcDbPolyline
 90
        2
 70
     1
 43
0.00387519484716
 10
23015.57733513052
 20
56793.98070366631
 42
1.0
 10
23015.57733513052
 20
56793.97682847146
 42
1.0
  0
LWPOLYLINE
  5
100DC
330
1E
100
AcDbEntity
  8
PAVEMENT
100
AcDbPolyline
 90
        2
 70
     1
 43
0.00387519484716
 10
23015.57044589524
 20
56793.87736513706
 42
1.0
 10
23015.57044589524
 20
56793.87348994221
 42
1.0
  0
LWPOLYLINE
  5
100DD
330
1E
100
AcDbEntity
  8
PAVEMENT
100
AcDbPolyline
 90
        2
 70
     1
 43
0.00387519484716
 10
23015.57044589524
 20
56793.7740266078
 42
1.0
 10
23015.57044589524
 20
56793.77015141295
 42
1.0
  0
LWPOLYLINE
  5
100DE
330
1E
100
AcDbEntity
  8
PAVEMENT
100
AcDbPolyline
 90
        2
 70
     1
 43
0.00387519484716
 10
23015.57044589524
 20
56793.67068807853
 42
1.0
 10
23015.57044589524
 20
56793.66681288369
 42
1.0
  0
LWPOLYLINE
  5
100DF
330
1E
100
AcDbEntity
  8
PAVEMENT
100
AcDbPolyline
 90
        2
 70
     1
 43
0.00387519484716
 10
23015.56614012318
 20
56793.5673495493
 42
1.0
 10
23015.56614012318
 20
56793.56347435444
 42
1.0
  0
LWPOLYLINE
  5
100E0
330
1E
100
AcDbEntity
  8
PAVEMENT
100
AcDbPolyline
 90
        2
 70
     1
 43
0.00387519484716
 10
23015.56614012318
 20
56793.46401102002
 42
1.0
 10
23015.56614012318
 20
56793.46013582518
 42
1.0
  0
LWPOLYLINE
  5
100E1
330
1E
100
AcDbEntity
  8
PAVEMENT
100
AcDbPolyline
 90
        2
 70
     1
 43
0.00387519484716
 10
23015.56614012318
 20
56793.36067249077
 42
1.0
 10
23015.56614012318
 20
56793.35679729593
 42
1.0
  0
LWPOLYLINE
  5
100E2
330
1E
100
AcDbEntity
  8
PAVEMENT
100
AcDbPolyline
 90
        2
 70
     1
 43
0.00387519484716
 10
23015.56614012318
 20
56793.25733396152
 42
1.0
 10
23015.56614012318
 20
56793.25345876667
 42
1.0
  0
LWPOLYLINE
  5
100E3
330
1E
100
AcDbEntity
  8
PAVEMENT
100
AcDbPolyline
 90
        2
 70
     1
 43
0.00387519484716
 10
23015.56614012318
 20
56793.15399543226
 42
1.0
 10
23015.56614012318
 20
56793.15012023741
 42
1.0
  0
LWPOLYLINE
  5
100E4
330
1E
100
AcDbEntity
  8
PAVEMENT
100
AcDbPolyline
 90
        2
 70
     1
 43
0.00387519484716
 10
23015.56614012318
 20
56793.05065690299
 42
1.0
 10
23015.56614012318
 20
56793.04678170815
 42
1.0
  0
LWPOLYLINE
  5
100E5
330
1E
100
AcDbEntity
  8
PAVEMENT
100
AcDbPolyline
 90
        2
 70
     1
 43
0.00387519484716
 10
23015.56614012318
 20
56792.98650089942
 42
1.0
 10
23015.56614012318
 20
56792.98262570457
 42
1.0
  0
LWPOLYLINE
  5
100E7
330
1E
100
AcDbEntity
  8
PAVEMENT
100
AcDbPolyline
 90
        2
 70
     1
 43
0.00387519484716
 10
23017.02931964818
 20
56793.15399543226
 42
-1.0
 10
23017.02931964818
 20
56793.15012023741
 42
-1.0
  0
LWPOLYLINE
  5
100E8
330
1E
100
AcDbEntity
  8
PAVEMENT
100
AcDbPolyline
 90
        2
 70
     1
 43
0.00775038969432
 10
23017.02156925849
 20
56793.25195174645
 42
1.0
 10
23017.02156925849
 20
56793.25970213614
 42
1.0
  0
LWPOLYLINE
  5
100E9
330
1E
100
AcDbEntity
  8
PAVEMENT
100
AcDbPolyline
 90
        2
 70
     1
 43
0.00387519484716
 10
23017.02931964818
 20
56793.05065690299
 42
-1.0
 10
23017.02931964818
 20
56793.04678170815
 42
-1.0
  0
LWPOLYLINE
  5
100EA
330
1E
100
AcDbEntity
  8
PAVEMENT
100
AcDbPolyline
 90
        2
 70
     1
 43
0.00387519484716
 10
23017.03577830626
 20
56792.94731837374
 42
-1.0
 10
23017.03577830626
 20
56792.9434431789
 42
-1.0
  0
LWPOLYLINE
  5
100EB
330
1E
100
AcDbEntity
  8
PAVEMENT
100
AcDbPolyline
 90
        2
 70
     1
 43
0.00387519484716
 10
23017.03620888347
 20
56792.84311869007
 42
-1.0
 10
23017.03620888347
 20
56792.83924349523
 42
-1.0
  0
LWPOLYLINE
  5
100EC
330
1E
100
AcDbEntity
  8
PAVEMENT
100
AcDbPolyline
 90
        2
 70
     1
 43
0.00387519484716
 10
23017.03620888347
 20
56792.74064131522
 42
-1.0
 10
23017.03620888347
 20
56792.73676612037
 42
-1.0
  0
LWPOLYLINE
  5
100ED
330
1E
100
AcDbEntity
  8
PAVEMENT
100
AcDbPolyline
 90
        2
 70
     1
 43
0.00387519484716
 10
23017.04051465552
 20
56792.63730278597
 42
-1.0
 10
23017.04051465552
 20
56792.63342759112
 42
-1.0
  0
LWPOLYLINE
  5
100EE
330
1E
100
AcDbEntity
  8
PAVEMENT
100
AcDbPolyline
 90
        2
 70
     1
 43
0.00387519484716
 10
23017.04051465552
 20
56792.53396425671
 42
-1.0
 10
23017.04051465552
 20
56792.53008906187
 42
-1.0
  0
LWPOLYLINE
  5
100EF
330
1E
100
AcDbEntity
  8
PAVEMENT
100
AcDbPolyline
 90
        2
 70
     1
 43
0.00387519484716
 10
23017.04051465552
 20
56792.43062572745
 42
-1.0
 10
23017.04051465552
 20
56792.42675053261
 42
-1.0
  0
LWPOLYLINE
  5
100F0
330
1E
100
AcDbEntity
  8
PAVEMENT
100
AcDbPolyline
 90
        2
 70
     1
 43
0.00387519484716
 10
23017.04051465552
 20
56792.32728719819
 42
-1.0
 10
23017.04051465552
 20
56792.32341200334
 42
-1.0
  0
LWPOLYLINE
  5
100F1
330
1E
100
AcDbEntity
  8
PAVEMENT
100
AcDbPolyline
 90
        2
 70
     1
 43
0.00387519484716
 10
23017.04051465552
 20
56792.22394866894
 42
-1.0
 10
23017.04051465552
 20
56792.22007347409
 42
-1.0
  0
LWPOLYLINE
  5
100F2
330
1E
100
AcDbEntity
  8
PAVEMENT
100
AcDbPolyline
 90
        2
 70
     1
 43
0.00387519484716
 10
23017.04051465552
 20
56792.12061013968
 42
-1.0
 10
23017.04051465552
 20
56792.11673494483
 42
-1.0
  0
LWPOLYLINE
  5
100F3
330
1E
100
AcDbEntity
  8
PAVEMENT
100
AcDbPolyline
 90
        2
 70
     1
 43
0.00387519484716
 10
23017.04051465552
 20
56792.14601419479
 42
-1.0
 10
23017.04051465552
 20
56792.14213899994
 42
-1.0
  0
LWPOLYLINE
  5
100F4
330
1E
100
AcDbEntity
  8
PAVEMENT
100
AcDbPolyline
 90
        2
 70
     1
 43
0.00775038969432
 10
23017.00818993237
 20
56793.35529027571
 42
1.0
 10
23017.00818993237
 20
56793.3630406654
 42
1.0
  0
LWPOLYLINE
  5
100F5
330
1E
100
AcDbEntity
  8
PAVEMENT
100
AcDbPolyline
 90
        2
 70
     1
 43
0.00775038969432
 10
23016.99339410871
 20
56793.45862880496
 42
1.0
 10
23016.99339410871
 20
56793.46637919465
 42
1.0
  0
LWPOLYLINE
  5
100F6
330
1E
100
AcDbEntity
  8
PAVEMENT
100
AcDbPolyline
 90
        2
 70
     1
 43
0.00775038969432
 10
23016.98232669695
 20
56793.56196733421
 42
1.0
 10
23016.98232669695
 20
56793.56971772392
 42
1.0
  0
LWPOLYLINE
  5
100F7
330
1E
100
AcDbEntity
  8
PAVEMENT
100
AcDbPolyline
 90
        2
 70
     1
 43
0.00775038969432
 10
23017.01813717113
 20
56795.60794364457
 42
-1.0
 10
23017.01813717113
 20
56795.61569403426
 42
-1.0
  0
LWPOLYLINE
  5
1012E
330
1E
100
AcDbEntity
  8
DOWEL
100
AcDbPolyline
 90
        2
 70
     0
 43
0.00258346323144
 10
23015.75236725077
 20
56797.27236345383
 10
23015.78417783138
 20
56797.27236345383
  0
LWPOLYLINE
  5
1012F
330
1E
100
AcDbEntity
  8
DOWEL
100
AcDbPolyline
 90
        2
 70
     0
 43
0.00258346323144
 10
23015.80403651541
 20
56797.18286966229
 10
23015.83584709601
 20
56797.18286966229
  0
LWPOLYLINE
  5
10130
330
1E
100
AcDbEntity
  8
DOWEL
100
AcDbPolyline
 90
        2
 70
     0
 43
0.00258346323144
 10
23015.85570578004
 20
56797.09337587078
 10
23015.88751636064
 20
56797.09337587078
  0
LWPOLYLINE
  5
10131
330
1E
100
AcDbEntity
  8
DOWEL
100
AcDbPolyline
 90
        2
 70
     0
 43
0.00258346323144
 10
23015.90737504466
 20
56797.00388207925
 10
23015.93918562526
 20
56797.00388207925
  0
LWPOLYLINE
  5
10132
330
1E
100
AcDbEntity
  8
DOWEL
100
AcDbPolyline
 90
        2
 70
     0
 43
0.00258346323144
 10
23015.95904430929
 20
56796.91438828772
 10
23015.9908548899
 20
56796.91438828772
  0
LWPOLYLINE
  5
10133
330
1E
100
AcDbEntity
  8
DOWEL
100
AcDbPolyline
 90
        2
 70
     0
 43
0.00258346323144
 10
23016.01071357392
 20
56796.8248944962
 10
23016.04252415452
 20
56796.8248944962
  0
LWPOLYLINE
  5
10134
330
1E
100
AcDbEntity
  8
DOWEL
100
AcDbPolyline
 90
        2
 70
     0
 43
0.00258346323144
 10
23016.06238283855
 20
56796.73540070466
 10
23016.09419341915
 20
56796.73540070466
  0
LWPOLYLINE
  5
10135
330
1E
100
AcDbEntity
  8
DOWEL
100
AcDbPolyline
 90
        2
 70
     0
 43
0.00258346323144
 10
23016.11405210318
 20
56796.64590691315
 10
23016.14586268379
 20
56796.64590691315
  0
LWPOLYLINE
  5
10136
330
1E
100
AcDbEntity
  8
DOWEL
100
AcDbPolyline
 90
        2
 70
     0
 43
0.00258346323144
 10
23016.16572136781
 20
56796.55641312161
 10
23016.19753194841
 20
56796.55641312161
  0
LWPOLYLINE
  5
10137
330
1E
100
AcDbEntity
  8
DOWEL
100
AcDbPolyline
 90
        2
 70
     0
 43
0.00258346323144
 10
23016.21739063243
 20
56796.46691933008
 10
23016.24920121304
 20
56796.46691933008
  0
LWPOLYLINE
  5
10138
330
1E
100
AcDbEntity
  8
DOWEL
100
AcDbPolyline
 90
        2
 70
     0
 43
0.00258346323144
 10
23016.26905989706
 20
56796.37742553857
 10
23016.30087047767
 20
56796.37742553857
  0
LWPOLYLINE
  5
10139
330
1E
100
AcDbEntity
  8
DOWEL
100
AcDbPolyline
 90
        2
 70
     0
 43
0.00258346323144
 10
23016.32072916169
 20
56796.28793174703
 10
23016.3525397423
 20
56796.28793174703
  0
LWPOLYLINE
  5
1013A
330
1E
100
AcDbEntity
  8
DOWEL
100
AcDbPolyline
 90
        2
 70
     0
 43
0.00258346323144
 10
23016.37286086624
 20
56796.19763698608
 10
23016.40467144685
 20
56796.19763698608
  0
LWPOLYLINE
  5
1013B
330
1E
100
AcDbEntity
  8
DOWEL
100
AcDbPolyline
 90
        2
 70
     0
 43
0.00258346323144
 10
23016.42360525103
 20
56796.10974513342
 10
23016.45541583164
 20
56796.10974513342
  0
LWPOLYLINE
  5
1013C
330
1E
100
AcDbEntity
  8
DOWEL
100
AcDbPolyline
 90
        2
 70
     0
 43
0.00258346323144
 10
23016.47434963582
 20
56796.02185328074
 10
23016.50616021643
 20
56796.02185328074
  0
LWPOLYLINE
  5
1013D
330
1E
100
AcDbEntity
  8
DOWEL
100
AcDbPolyline
 90
        2
 70
     0
 43
0.00258346323144
 10
23016.52509402061
 20
56795.93396142809
 10
23016.55690460122
 20
56795.93396142809
  0
LWPOLYLINE
  5
1013E
330
1E
100
AcDbEntity
  8
DOWEL
100
AcDbPolyline
 90
        2
 70
     0
 43
0.00258346323144
 10
23016.57583840541
 20
56795.84606957543
 10
23016.60764898601
 20
56795.84606957543
  0
LWPOLYLINE
  5
1013F
330
1E
100
AcDbEntity
  8
DOWEL
100
AcDbPolyline
 90
        2
 70
     0
 43
0.00258346323144
 10
23016.6265827902
 20
56795.75817772278
 10
23016.65839337081
 20
56795.75817772278
  0
LWPOLYLINE
  5
10140
330
1E
100
AcDbEntity
  8
DOWEL
100
AcDbPolyline
 90
        2
 70
     0
 43
0.00258346323144
 10
23016.67732717499
 20
56795.67028587012
 10
23016.7091377556
 20
56795.67028587012
  0
LWPOLYLINE
  5
10141
330
1E
100
AcDbEntity
  8
DOWEL
100
AcDbPolyline
 90
        2
 70
     0
 43
0.00258346323144
 10
23016.72807155978
 20
56795.58239401746
 10
23016.75988214039
 20
56795.58239401746
  0
LWPOLYLINE
  5
10142
330
1E
100
AcDbEntity
  8
DOWEL
100
AcDbPolyline
 90
        2
 70
     0
 43
0.00258346323144
 10
23016.77881594458
 20
56795.4945021648
 10
23016.81062652518
 20
56795.4945021648
  0
LWPOLYLINE
  5
10143
330
1E
100
AcDbEntity
  8
DOWEL
100
AcDbPolyline
 90
        2
 70
     0
 43
0.00258346323144
 10
23016.81664301321
 20
56795.42598628638
 10
23016.84107920114
 20
56795.42598628638
  0
POINT
  5
10166
330
1E
100
AcDbEntity
  8
DOWEL
100
AcDbPoint
 10
23011.67136285758
 20
56792.93324529564
 30
0.0
 50
360.0
  0
POINT
  5
10167
330
1E
100
AcDbEntity
  8
DOWEL
100
AcDbPoint
 10
23012.00933807287
 20
56792.93324529564
 30
0.0
 50
360.0
  0
POINT
  5
10168
330
1E
100
AcDbEntity
  8
DOWEL
100
AcDbPoint
 10
23012.34731328817
 20
56792.93324529564
 30
0.0
 50
360.0
  0
LWPOLYLINE
  5
10169
330
1E
100
AcDbEntity
  8
DOWEL
100
AcDbPolyline
 90
        2
 70
     0
 43
0.0050958812240154
 10
23011.70321211522
 20
56792.90187211052
 10
23011.70321211522
 20
56792.96461848077
  0
LWPOLYLINE
  5
1016A
330
1E
100
AcDbEntity
  8
DOWEL
100
AcDbPolyline
 90
        2
 70
     0
 43
0.0050958812240154
 10
23011.63951359992
 20
56792.90187211052
 10
23011.63951359992
 20
56792.96461848077
  0
LWPOLYLINE
  5
1016B
330
1E
100
AcDbEntity
  8
DOWEL
100
AcDbPolyline
 90
        2
 70
     0
 43
0.0050958812240154
 10
23012.04118733052
 20
56792.90187211052
 10
23012.04118733052
 20
56792.96461848077
  0
LWPOLYLINE
  5
1016C
330
1E
100
AcDbEntity
  8
DOWEL
100
AcDbPolyline
 90
        2
 70
     0
 43
0.0050958812240154
 10
23011.97748881522
 20
56792.90187211052
 10
23011.97748881522
 20
56792.96461848077
  0
LWPOLYLINE
  5
1016D
330
1E
100
AcDbEntity
  8
DOWEL
100
AcDbPolyline
 90
        2
 70
     0
 43
0.0050958812240154
 10
23012.37916254582
 20
56792.90187211052
 10
23012.37916254582
 20
56792.96461848077
  0
LWPOLYLINE
  5
1016E
330
1E
100
AcDbEntity
  8
DOWEL
100
AcDbPolyline
 90
        2
 70
     0
 43
0.0050958812240154
 10
23012.31546403052
 20
56792.90187211052
 10
23012.31546403052
 20
56792.96461848077
  0
LWPOLYLINE
  5
10176
330
1E
100
AcDbEntity
  8
DOWEL
100
AcDbPolyline
 90
        2
 70
     0
 43
0.0050958812240154
 10
23011.65567626501
 20
56793.29197390558
 10
23011.68704945014
 20
56793.34631385621
  0
LWPOLYLINE
  5
10177
330
1E
100
AcDbEntity
  8
DOWEL
100
AcDbPolyline
 90
        2
 70
     0
 43
0.0050958812240154
 10
23012.10630988541
 20
56793.29197390558
 10
23012.13768307053
 20
56793.34631385621
  0
LWPOLYLINE
  5
10178
330
1E
100
AcDbEntity
  8
DOWEL
100
AcDbPolyline
 90
        2
 70
     0
 43
0.0050958812240154
 10
23012.3316266956
 20
56793.29197390558
 10
23012.36299988073
 20
56793.34631385621
  0
LWPOLYLINE
  5
10179
330
1E
100
AcDbEntity
  8
DOWEL
100
AcDbPolyline
 90
        2
 70
     0
 43
0.0050958812240154
 10
23011.88099307521
 20
56793.29197390558
 10
23011.91236626034
 20
56793.34631385621
  0
LWPOLYLINE
  5
1053E
330
1E
100
AcDbEntity
  8
PAVEMENT
 62
    90
100
AcDbPolyline
 90
        2
 70
     0
 43
0.01033385292576
 10
23015.75249992065
 20
56795.2590581765
 10
23015.75249992065
 20
56797.65248183962
  0
LWPOLYLINE
  5
1053F
330
1E
100
AcDbEntity
  8
PAVEMENT
100
AcDbPolyline
 90
        2
 70
     1
 43
0.00775038969432
 10
23015.68960059566
 20
56795.21507649218
 42
-1.0
 10
23015.68960059566
 20
56795.22282688187
 42
-1.0
  0
LWPOLYLINE
  5
10540
330
1E
100
AcDbEntity
  8
PAVEMENT
100
AcDbPolyline
 90
        2
 70
     1
 43
0.00775038969432
 10
23015.68960059566
 20
56795.11173796293
 42
-1.0
 10
23015.68960059566
 20
56795.11948835262
 42
-1.0
  0
LWPOLYLINE
  5
10541
330
1E
100
AcDbEntity
  8
PAVEMENT
100
AcDbPolyline
 90
        2
 70
     1
 43
0.00775038969432
 10
23015.67237750744
 20
56795.04069272406
 42
-1.0
 10
23015.67237750744
 20
56795.04844311375
 42
-1.0
  0
LWPOLYLINE
  5
10542
330
1E
100
AcDbEntity
  8
PAVEMENT
100
AcDbPolyline
 90
        2
 70
     1
 43
0.00387519484716
 10
23015.66215877439
 20
56794.95596103235
 42
1.0
 10
23015.66215877439
 20
56794.95208583749
 42
1.0
  0
LWPOLYLINE
  5
10543
330
1E
100
AcDbEntity
  8
PAVEMENT
100
AcDbPolyline
 90
        2
 70
     1
 43
0.00387519484716
 10
23015.76765018967
 20
56795.44854135513
 42
1.0
 10
23015.76765018967
 20
56795.44466616028
 42
1.0
  0
LWPOLYLINE
  5
10544
330
1E
100
AcDbEntity
  8
PAVEMENT
100
AcDbPolyline
 90
        2
 70
     1
 43
0.00775038969432
 10
23015.77900862028
 20
56795.5972143231
 42
-1.0
 10
23015.77900862028
 20
56795.60496471279
 42
-1.0
  0
LWPOLYLINE
  5
1054C
330
1E
100
AcDbEntity
  8
PAVEMENT
100
AcDbPolyline
 90
        2
 70
     1
 43
0.00775038969432
 10
23015.78928221228
 20
56795.73046043776
 42
-1.0
 10
23015.78928221228
 20
56795.73821082745
 42
-1.0
  0
LWPOLYLINE
  5
1054D
330
1E
100
AcDbEntity
  8
PAVEMENT
100
AcDbPolyline
 90
        2
 70
     1
 43
0.00775038969432
 10
23015.79200514379
 20
56795.95871745274
 42
-1.0
 10
23015.79200514379
 20
56795.96646784243
 42
-1.0
  0
LWPOLYLINE
  5
1054E
330
1E
100
AcDbEntity
  8
PAVEMENT
100
AcDbPolyline
 90
        2
 70
     1
 43
0.00775038969432
 10
23015.77069204302
 20
56795.82249330879
 42
-1.0
 10
23015.77069204302
 20
56795.83024369848
 42
-1.0
  0
LWPOLYLINE
  5
1054F
330
1E
100
AcDbEntity
  8
PAVEMENT
100
AcDbPolyline
 90
        2
 70
     1
 43
0.00387519484716
 10
23015.76147007474
 20
56795.67093504291
 42
1.0
 10
23015.76147007474
 20
56795.66705984806
 42
1.0
  0
LWPOLYLINE
  5
10550
330
1E
100
AcDbEntity
  8
PAVEMENT
100
AcDbPolyline
 90
        2
 70
     1
 43
0.00387519484716
 10
23015.77216983766
 20
56796.04136829649
 42
1.0
 10
23015.77216983766
 20
56796.03749310164
 42
1.0
  0
LWPOLYLINE
  5
10552
330
1E
100
AcDbEntity
  8
PAVEMENT
100
AcDbPolyline
 90
        2
 70
     1
 43
0.00775038969432
 10
23015.77443884523
 20
56796.18936157477
 42
-1.0
 10
23015.77443884523
 20
56796.19711196446
 42
-1.0
  0
LWPOLYLINE
  5
10553
330
1E
100
AcDbEntity
  8
PAVEMENT
100
AcDbPolyline
 90
        2
 70
     1
 43
0.00387519484716
 10
23015.76226656194
 20
56796.26914363805
 42
1.0
 10
23015.76226656194
 20
56796.2652684432
 42
1.0
  0
LWPOLYLINE
  5
10554
330
1E
100
AcDbEntity
  8
PAVEMENT
100
AcDbPolyline
 90
        2
 70
     1
 43
0.00775038969432
 10
23015.79310475735
 20
56796.33192400683
 42
-1.0
 10
23015.79310475735
 20
56796.33967439654
 42
-1.0
  0
LWPOLYLINE
  5
10555
330
1E
100
AcDbEntity
  8
PAVEMENT
100
AcDbPolyline
 90
        2
 70
     1
 43
0.00775038969432
 10
23015.77458993753
 20
56796.41065336824
 42
-1.0
 10
23015.77458993753
 20
56796.41840375793
 42
-1.0
  0
LWPOLYLINE
  5
10556
330
1E
100
AcDbEntity
  8
PAVEMENT
100
AcDbPolyline
 90
        2
 70
     1
 43
0.00775038969432
 10
23015.77646333863
 20
56796.56096619001
 42
-1.0
 10
23015.77646333863
 20
56796.5687165797
 42
-1.0
  0
LWPOLYLINE
  5
10557
330
1E
100
AcDbEntity
  8
PAVEMENT
100
AcDbPolyline
 90
        2
 70
     1
 43
0.00775038969432
 10
23015.81149118455
 20
56796.70051458163
 42
-1.0
 10
23015.81149118455
 20
56796.70826497134
 42
-1.0
  0
LWPOLYLINE
  5
10558
330
1E
100
AcDbEntity
  8
PAVEMENT
100
AcDbPolyline
 90
        2
 70
     1
 43
0.00775038969432
 10
23015.77532269931
 20
56796.79086952757
 42
-1.0
 10
23015.77532269931
 20
56796.79861991727
 42
-1.0
  0
LWPOLYLINE
  5
10559
330
1E
100
AcDbEntity
  8
PAVEMENT
100
AcDbPolyline
 90
        2
 70
     1
 43
0.00775038969432
 10
23015.82610810986
 20
56796.09986778324
 42
-1.0
 10
23015.82610810986
 20
56796.10761817294
 42
-1.0
  0
LWPOLYLINE
  5
1055A
330
1E
100
AcDbEntity
  8
PAVEMENT
100
AcDbPolyline
 90
        2
 70
     1
 43
0.00775038969432
 10
23015.77086583497
 20
56796.63416431489
 42
-1.0
 10
23015.77086583497
 20
56796.64191470459
 42
-1.0
  0
LWPOLYLINE
  5
1055B
330
1E
100
AcDbEntity
  8
PAVEMENT
100
AcDbPolyline
 90
        2
 70
     1
 43
0.00387519484716
 10
23015.76291384316
 20
56796.8668626657
 42
1.0
 10
23015.76291384316
 20
56796.86298747084
 42
1.0
  0
LWPOLYLINE
  5
1055C
330
1E
100
AcDbEntity
  8
PAVEMENT
100
AcDbPolyline
 90
        2
 70
     1
 43
0.00775038969432
 10
23015.81035054522
 20
56796.93041791921
 42
-1.0
 10
23015.81035054522
 20
56796.93816830892
 42
-1.0
  0
LWPOLYLINE
  5
1055D
330
1E
100
AcDbEntity
  8
PAVEMENT
100
AcDbPolyline
 90
        2
 70
     1
 43
0.00775038969432
 10
23015.77504321439
 20
56797.01517536147
 42
-1.0
 10
23015.77504321439
 20
56797.02292575118
 42
-1.0
  0
LWPOLYLINE
  5
1055E
330
1E
100
AcDbEntity
  8
PAVEMENT
100
AcDbPolyline
 90
        2
 70
     1
 43
0.00775038969432
 10
23015.79586201253
 20
56797.1530014443
 42
-1.0
 10
23015.79586201253
 20
56797.16075183399
 42
-1.0
  0
LWPOLYLINE
  5
1055F
330
1E
100
AcDbEntity
  8
PAVEMENT
100
AcDbPolyline
 90
        2
 70
     1
 43
0.00775038969432
 10
23015.77002738021
 20
56797.23259196011
 42
-1.0
 10
23015.77002738021
 20
56797.2403423498
 42
-1.0
  0
LWPOLYLINE
  5
10560
330
1E
100
AcDbEntity
  8
PAVEMENT
100
AcDbPolyline
 90
        2
 70
     1
 43
0.00387519484716
 10
23015.76377499757
 20
56797.46407324937
 42
1.0
 10
23015.76377499757
 20
56797.46019805451
 42
1.0
  0
LWPOLYLINE
  5
10561
330
1E
100
AcDbEntity
  8
PAVEMENT
100
AcDbPolyline
 90
        2
 70
     1
 43
0.00387519484716
 10
23015.7659278836
 20
56797.58549602125
 42
1.0
 10
23015.7659278836
 20
56797.58162082638
 42
1.0
  0
LWPOLYLINE
  5
10562
330
1E
100
AcDbEntity
  8
GRID
  6
Continuous
100
AcDbPolyline
 90
        2
 70
     0
 43
0.00516692646288
 10
23016.94425481708
 20
56793.60730341487
 10
23016.94425481708
 20
56795.59905282002
  0
LWPOLYLINE
  5
10563
330
1E
100
AcDbEntity
  8
PAVEMENT
100
AcDbPolyline
 90
        2
 70
     1
 43
0.00775038969432
 10
23016.82265511995
 20
56795.5119249278
 42
-1.0
 10
23016.82265511995
 20
56795.51967531749
 42
-1.0
  0
LWPOLYLINE
  5
10564
330
1E
100
AcDbEntity
  8
PAVEMENT
100
AcDbPolyline
 90
        2
 70
     1
 43
0.00387519484716
 10
23016.83841625588
 20
56795.44905277485
 42
1.0
 10
23016.83841625588
 20
56795.44517758001
 42
1.0
  0
LWPOLYLINE
  5
10565
330
1E
100
AcDbEntity
  8
PAVEMENT
100
AcDbPolyline
 90
        2
 70
     1
 43
0.00775038969432
 10
23016.80349490521
 20
56795.37742309268
 42
-1.0
 10
23016.80349490521
 20
56795.38517348237
 42
-1.0
  0
LWPOLYLINE
  5
10566
330
1E
100
AcDbEntity
  8
PAVEMENT
100
AcDbPolyline
 90
        2
 70
     1
 43
0.00775038969432
 10
23016.8296963893
 20
56795.29211470325
 42
-1.0
 10
23016.8296963893
 20
56795.29986509294
 42
-1.0
  0
LWPOLYLINE
  5
10567
330
1E
100
AcDbEntity
  8
PAVEMENT
100
AcDbPolyline
 90
        2
 70
     1
 43
0.00387519484716
 10
23016.84237093276
 20
56795.22480814855
 42
1.0
 10
23016.84237093276
 20
56795.22093295369
 42
1.0
  0
LWPOLYLINE
  5
10568
330
1E
100
AcDbEntity
  8
PAVEMENT
100
AcDbPolyline
 90
        2
 70
     1
 43
0.00775038969432
 10
23016.79374366355
 20
56795.15416825047
 42
-1.0
 10
23016.79374366355
 20
56795.16191864018
 42
-1.0
  0
LWPOLYLINE
  5
10569
330
1E
100
AcDbEntity
  8
PAVEMENT
100
AcDbPolyline
 90
        2
 70
     1
 43
0.00775038969432
 10
23016.82984842337
 20
56795.07101274708
 42
-1.0
 10
23016.82984842337
 20
56795.07876313677
 42
-1.0
  0
LWPOLYLINE
  5
1056A
330
1E
100
AcDbEntity
  8
PAVEMENT
100
AcDbPolyline
 90
        2
 70
     1
 43
0.00775038969432
 10
23016.90920113821
 20
56793.97788825017
 42
-1.0
 10
23016.90920113821
 20
56793.98563863987
 42
-1.0
  0
LWPOLYLINE
  5
1056B
330
1E
100
AcDbEntity
  8
PAVEMENT
100
AcDbPolyline
 90
        2
 70
     1
 43
0.00775038969432
 10
23016.89154747279
 20
56794.08122677942
 42
-1.0
 10
23016.89154747279
 20
56794.08897716912
 42
-1.0
  0
LWPOLYLINE
  5
1056C
330
1E
100
AcDbEntity
  8
GRID
 62
     6
100
AcDbPolyline
 90
        2
 70
     0
 43
0.00516692646288
 10
23016.69503574064
 20
56794.66607050342
 10
23016.85066418567
 20
56794.39651412952
  0
LWPOLYLINE
  5
1056D
330
1E
100
AcDbEntity
  8
GRID
 62
     6
100
AcDbPolyline
 90
        2
 70
     0
 43
0.00516692646288
 10
23016.83179532699
 20
56794.16823182777
 10
23016.85066418567
 20
56794.17912576841
  0
LWPOLYLINE
  5
1056E
330
1E
100
AcDbEntity
  8
PAVEMENT
100
AcDbPolyline
 90
        2
 70
     1
 43
0.00775038969432
 10
23016.83338251459
 20
56794.2446131352
 42
-1.0
 10
23016.83338251459
 20
56794.25236352489
 42
-1.0
  0
LWPOLYLINE
  5
1056F
330
1E
100
AcDbEntity
  8
PAVEMENT
100
AcDbPolyline
 90
        2
 70
     1
 43
0.00775038969432
 10
23016.76698320962
 20
56794.64506594491
 42
-1.0
 10
23016.76698320962
 20
56794.65281633462
 42
-1.0
  0
LWPOLYLINE
  5
10570
330
1E
100
AcDbEntity
  8
PAVEMENT
100
AcDbPolyline
 90
        2
 70
     1
 43
0.00775038969432
 10
23016.81772759442
 20
56794.55717409226
 42
-1.0
 10
23016.81772759442
 20
56794.56492448195
 42
-1.0
  0
LWPOLYLINE
  5
10572
330
1E
100
AcDbEntity
  8
PAVEMENT
100
AcDbPolyline
 90
        2
 70
     1
 43
0.00775038969432
 10
23016.79990232369
 20
56794.78126094116
 42
1.0
 10
23016.79319028933
 20
56794.78513613602
 42
1.0
  0
LWPOLYLINE
  5
10573
330
1E
100
AcDbEntity
  8
PAVEMENT
100
AcDbPolyline
 90
        2
 70
     1
 43
0.00775038969432
 10
23016.82954842543
 20
56794.70284178703
 42
1.0
 10
23016.82283639107
 20
56794.70671698187
 42
1.0
  0
LWPOLYLINE
  5
10575
330
1E
100
AcDbEntity
  8
PAVEMENT
100
AcDbPolyline
 90
        2
 70
     1
 43
0.00775038969432
 10
23016.83585504945
 20
56794.91920739393
 42
1.0
 10
23016.82914301508
 20
56794.92308258877
 42
1.0
  0
LWPOLYLINE
  5
10576
330
1E
100
AcDbEntity
  8
PAVEMENT
100
AcDbPolyline
 90
        2
 70
     1
 43
0.00775038969432
 10
23015.83095642805
 20
56797.29095658836
 42
-1.0
 10
23015.83095642805
 20
56797.29870697805
 42
-1.0
  0
LWPOLYLINE
  5
108EE
330
1E
100
AcDbEntity
  8
border
100
AcDbPolyline
 90
        4
 70
     1
 43
0.0299760961192326
 10
23017.94023571458
 20
56791.48886438279
 10
23011.47401335569
 20
56791.48886438279
 10
23011.47401335569
 20
56800.06900069968
 10
23017.94023571458
 20
56800.06900069968
  0
LWPOLYLINE
  5
10960
330
1E
100
AcDbEntity
  8
PAVEMENT
100
AcDbPolyline
 90
        2
 70
     0
 43
0.0052
 10
23015.5589160411
 20
56799.19901047336
 10
23015.57184989403
 20
56799.19901047336
  0
LWPOLYLINE
  5
10965
330
1E
100
AcDbEntity
  8
PAVEMENT
100
AcDbPolyline
 90
        2
 70
     1
 43
0.00387519484716
 10
23015.56424230953
 20
56799.14798707454
 42
1.0
 10
23015.56424230953
 20
56799.1441118797
 42
1.0
  0
ENDSEC
  0
SECTION
  2
OBJECTS
  0
DICTIONARY
  5
C
330
0
100
AcDbDictionary
281
     1
  3
ACAD_CIP_PREVIOUS_PRODUCT_INFO
350
35A
  3
ACAD_COLOR
350
341
  3
ACAD_GROUP
350
D
  3
ACAD_IMAGE_DICT
350
20C6
  3
ACAD_LAYOUT
350
19
  3
ACAD_MATERIAL
350
30F
  3
ACAD_MLEADERSTYLE
350
356
  3
ACAD_MLINESTYLE
350
16
  3
ACAD_PLOTSETTINGS
350
18
  3
ACAD_PLOTSTYLENAME
350
E
  3
ACAD_SCALELIST
350
344
  3
ACAD_TABLESTYLE
350
342
  3
ACAD_VISUALSTYLE
350
328
  3
ACDB_RECOMPOSE_DATA
350
10989
  3
AcDbVariableDictionary
350
1E3
  3
AEC_PROPERTY_SET_DEFS
350
280F
  0
DICTIONARY
  5
402
330
2
100
AcDbDictionary
280
     1
281
     1
  3
ACAD_LAYERSTATES
360
403
  0
DICTIONARY
  5
53F
330
10
100
AcDbDictionary
280
     1
281
     1
  3
ADSK_XREC_LAYER_RECONCILED
360
540
  0
DICTIONARY
  5
74EB
330
74EA
100
AcDbDictionary
280
     1
281
     1
  0
DICTIONARY
  5
3A3
330
1E
100
AcDbDictionary
280
     1
281
     1
  3
ACAD_SORTENTS
360
3A4
  0
XRECORD
  5
35A
102
{ACAD_REACTORS
330
C
102
}
330
C
100
AcDbXrecord
280
     1
300
ACDLT
300
2012
300
ACDLT_F_S
  0
DICTIONARY
  5
341
102
{ACAD_REACTORS
330
C
102
}
330
C
100
AcDbDictionary
281
     1
  0
DICTIONARY
  5
D
102
{ACAD_REACTORS
330
C
102
}
330
C
100
AcDbDictionary
281
     1
  0
DICTIONARY
  5
20C6
102
{ACAD_REACTORS
330
C
102
}
330
C
100
AcDbDictionary
281
     1
  3
1816_001
350
20C7
  0
DICTIONARY
  5
19
102
{ACAD_REACTORS
330
C
102
}
330
C
100
AcDbDictionary
281
     1
  3
Layout1
350
1D
  3
Model
350
21
  0
DICTIONARY
  5
30F
102
{ACAD_REACTORS
330
C
102
}
330
C
100
AcDbDictionary
281
     1
  3
ByBlock
350
318
  3
ByLayer
350
310
  3
Global
350
320
  0
DICTIONARY
  5
356
102
{ACAD_REACTORS
330
C
102
}
330
C
100
AcDbDictionary
281
     1
  3
Standard
350
357
  0
DICTIONARY
  5
16
102
{ACAD_REACTORS
330
C
102
}
330
C
100
AcDbDictionary
281
     1
  3
Standard
350
17
  0
DICTIONARY
  5
18
102
{ACAD_REACTORS
330
C
102
}
330
C
100
AcDbDictionary
281
     1
  0
ACDBDICTIONARYWDFLT
  5
E
102
{ACAD_REACTORS
330
C
102
}
330
C
100
AcDbDictionary
281
     1
  3
Normal
350
F
100
AcDbDictionaryWithDefault
340
F
  0
DICTIONARY
  5
344
102
{ACAD_REACTORS
330
C
102
}
330
C
100
AcDbDictionary
281
     1
  3
A0
350
345
  3
A1
350
346
  3
A2
350
347
  3
A3
350
348
  3
A4
350
349
  3
A5
350
34A
  3
A6
350
34B
  3
A7
350
34C
  3
A8
350
34D
  3
A9
350
34E
  3
B0
350
34F
  3
B1
350
350
  3
B2
350
351
  3
B3
350
352
  3
B4
350
353
  3
B5
350
354
  3
B6
350
355
  0
DICTIONARY
  5
342
102
{ACAD_REACTORS
330
C
102
}
330
C
100
AcDbDictionary
281
     1
  3
Standard
350
343
  0
DICTIONARY
  5
328
102
{ACAD_REACTORS
330
C
102
}
330
C
100
AcDbDictionary
281
     1
  3
2dWireframe
350
32E
  3
3D Hidden
350
1F38
  3
3dWireframe
350
1F37
  3
Basic
350
32D
  3
Brighten
350
334
  3
ColorChange
350
338
  3
Conceptual
350
331
  3
Dim
350
333
  3
EdgeColorOff
350
340
  3
Facepattern
350
337
  3
Flat
350
329
  3
FlatWithEdges
350
32A
  3
Gouraud
350
32B
  3
GouraudWithEdges
350
32C
  3
Hidden
350
330
  3
JitterOff
350
33E
  3
Linepattern
350
336
  3
OverhangOff
350
33F
  3
Realistic
350
332
  3
Shaded
350
33D
  3
Shaded with edges
350
33C
  3
Shades of Gray
350
339
  3
Sketchy
350
33A
  3
Thicken
350
335
  3
Wireframe
350
32F
  3
X-Ray
350
33B
  0
XRECORD
  5
10989
102
{ACAD_REACTORS
330
C
102
}
330
C
100
AcDbXrecord
280
     1
 90
        1
330
343
  0
DICTIONARY
  5
1E3
102
{ACAD_REACTORS
330
C
102
}
330
C
100
AcDbDictionary
281
     1
  3
CANNOSCALE
350
6BE
  3
CMLEADERSTYLE
350
6BC
  3
CTABLESTYLE
350
6BB
  3
DIMASSOC
350
1E4
  3
INDEXCTL
350
4B36
  3
LAYEREVAL
350
6C0
  3
LAYERNOTIFY
350
6C1
  3
LIGHTINGUNITS
350
6BF
  3
MSLTSCALE
350
6BD
  3
SORTENTS
350
4B35
  3
XCLIPFRAME
350
4B37
  0
DICTIONARY
  5
280F
102
{ACAD_REACTORS
330
C
102
}
330
C
100
AcDbDictionary
281
     1
  0
DICTIONARY
  5
403
102
{ACAD_REACTORS
330
402
102
}
330
402
100
AcDbDictionary
281
     1
  0
XRECORD
  5
540
102
{ACAD_REACTORS
330
53F
102
}
330
53F
100
AcDbXrecord
280
     1
290
     1
  0
SORTENTSTABLE
  5
3A4
102
{ACAD_REACTORS
330
3A3
102
}
330
3A3
100
AcDbSortentsTable
330
1E
331
F700
  5
10075
331
F5DD
  5
F697
331
F4BE
  5
F660
331
F614
  5
F6D4
331
F653
  5
F70E
331
F68A
  5
F745
331
F6C9
  5
FD4D
331
F747
  5
1013B
331
F61C
  5
F6DD
331
F36F
  5
F636
331
F5E5
  5
F69F
331
F65B
  5
F716
331
F692
  5
F74D
331
F6D1
  5
FE6E
331
F708
  5
10083
331
FB6D
  5
10541
331
FBE4
  5
10552
331
F663
  5
F71E
331
F377
  5
F63D
331
F5AE
  5
F66A
331
F5ED
  5
F6A7
331
F624
  5
F6DA
331
F69A
  5
F771
331
F6D9
  5
FF30
331
F710
  5
100C4
331
F74F
  5
10154
331
100C3
  5
10824
331
FFA7
  5
10803
331
F6A2
  5
FB31
331
F5B6
  5
F672
331
F62C
  5
F6E7
331
F718
  5
100D4
331
F757
  5
10897
331
10064
  5
1080D
331
10570
  5
108A5
331
10132
  5
10853
331
1006C
  5
1080E
331
FB36
  5
1053C
331
10541
  5
10875
331
10960
  5
10960
331
1013A
  5
1085B
331
10074
  5
10814
331
FD42
  5
10564
331
FF58
  5
107F7
331
100D3
  5
1082C
331
1007C
  5
F6AD
331
10142
  5
10863
331
ACF0
  5
EB0C
331
F66B
  5
F726
331
F5BE
  5
F67A
331
F5F5
  5
F6B0
331
F634
  5
F6EF
331
F6AA
  5
FB9D
331
F6E1
  5
FF57
331
F720
  5
100DD
331
F6B2
  5
FBF7
331
F4A7
  5
F649
331
AD00
  5
EB12
331
F5C6
  5
F682
331
F5FD
  5
F6B8
331
F63C
  5
F6F7
331
F673
  5
F72E
331
F6E9
  5
FF7A
331
F728
  5
100E5
331
F6F1
  5
FFAA
331
F4AF
  5
F651
331
F5CE
  5
F68A
331
F605
  5
F6C4
331
F644
  5
F6FF
331
F67B
  5
F736
331
F6BA
  5
FC50
331
F730
  5
100EE
331
F76F
  5
1016A
331
F6F9
  5
1006C
331
F5D6
  5
F691
331
F4B7
  5
F659
331
F60D
  5
F6CD
331
F64C
  5
F707
331
F683
  5
F73E
331
F6C2
  5
FC97
331
F738
  5
100F6
331
100DB
  5
10833
331
10559
  5
1088C
331
FF31
  5
107ED
331
100E3
  5
1083B
331
1016A
  5
10869
331
FE6A
  5
10569
331
FC34
  5
1055A
331
100A4
  5
10818
331
100EB
  5
10842
331
10561
  5
10894
331
100BC
  5
10822
331
100F3
  5
1084A
331
10569
  5
1089D
331
F701
  5
10076
331
F5DE
  5
F698
331
F368
  5
F62F
331
F4BF
  5
F661
331
F615
  5
F6D5
331
F654
  5
F70F
331
F68B
  5
F746
331
F6CA
  5
FD4E
331
F740
  5
10134
331
F709
  5
100A4
331
F5E6
  5
F6A0
331
F370
  5
F637
331
F61D
  5
F6DE
331
F65C
  5
F717
331
F693
  5
F74E
331
F6D2
  5
FE6F
331
F748
  5
1013C
331
F625
  5
F6C8
331
F5AF
  5
F66B
331
F5EE
  5
F6A8
331
F664
  5
F71F
331
F69B
  5
F927
331
F6DA
  5
FF3A
331
F711
  5
100C5
331
100C4
  5
10825
331
FF12
  5
10570
331
F6A3
  5
FB3C
331
F5B7
  5
F673
331
F62D
  5
F6E8
331
F719
  5
100D5
331
FFA8
  5
10804
331
10133
  5
10854
331
FF1A
  5
10575
331
10542
  5
10876
331
1013B
  5
1085C
331
FF59
  5
107F8
331
FD43
  5
10565
331
10075
  5
10815
331
100D4
  5
1082D
331
10143
  5
10864
331
ACF1
  5
EB0D
331
F378
  5
F63E
331
F66C
  5
F727
331
F4A0
  5
F642
331
F5BF
  5
F67B
331
F5F6
  5
F6B1
331
F635
  5
F6F0
331
F6AB
  5
FBB3
331
F6E2
  5
FF58
331
F721
  5
100DE
331
F674
  5
F72F
331
AD01
  5
EB15
331
F4A8
  5
F64A
331
F5C7
  5
F683
331
F5FE
  5
F6B9
331
F63D
  5
F6F8
331
F6B3
  5
FC04
331
F6EA
  5
FF7B
331
F729
  5
100E7
331
FB8E
  5
10544
331
F6BB
  5
FC55
331
F4B0
  5
F652
331
F5CF
  5
F68B
331
F606
  5
F6C5
331
F645
  5
F700
331
F67C
  5
F737
331
F6F2
  5
10008
331
F731
  5
100EF
331
FF61
  5
107F9
331
10552
  5
1087E
331
10046
  5
10807
331
F6FA
  5
1006D
331
F60E
  5
F6CE
331
F64D
  5
F708
331
F684
  5
F73F
331
F6C3
  5
FCA3
331
F739
  5
100FB
331
FB57
  5
1053F
331
100DC
  5
10834
331
1055A
  5
1088D
331
1004E
  5
10808
331
100E4
  5
1083C
331
1016B
  5
1086A
331
100A5
  5
1081C
331
FE6B
  5
1056B
331
FF3A
  5
107EE
331
FF99
  5
107FF
331
100EC
  5
10843
331
10562
  5
10895
331
100BD
  5
10823
331
100F4
  5
1084B
331
1056A
  5
1089E
331
F4B8
  5
F65A
331
F6CB
  5
FD4F
331
F4C0
  5
F662
331
F369
  5
F630
331
F5DF
  5
F699
331
F616
  5
F6D6
331
F655
  5
F710
331
F68C
  5
F747
331
F702
  5
10077
331
F741
  5
10135
331
F70A
  5
100A5
331
F5E7
  5
F6A1
331
F371
  5
F638
331
F61E
  5
F6DF
331
F65D
  5
F718
331
F694
  5
F74F
331
F6D3
  5
FE73
331
F749
  5
1013D
331
FB20
  5
10176
331
FF42
  5
107EF
331
F5EF
  5
F6A9
331
F5B0
  5
F66C
331
F665
  5
F720
331
F69C
  5
FA69
331
F6DB
  5
FF4A
331
F712
  5
100C6
331
100C5
  5
10826
331
FF13
  5
10572
331
F6A4
  5
FB47
331
F62E
  5
F6E9
331
F71A
  5
100D6
331
FF4A
  5
107F0
331
FFA9
  5
10805
331
10572
  5
108A6
331
10134
  5
10855
331
FC55
  5
1055D
331
10543
  5
10877
331
100D5
  5
1082E
331
FD44
  5
10566
331
10076
  5
10816
331
1013C
  5
1085D
331
ACF2
  5
EB0A
331
F379
  5
F63F
331
F5B8
  5
F674
331
F636
  5
F6F1
331
F4A1
  5
F643
331
F5C0
  5
F67C
331
F5F7
  5
F6B2
331
F66D
  5
F728
331
F6AC
  5
FBC8
331
F6E3
  5
FF59
331
F722
  5
100DF
331
F675
  5
F730
331
AD02
  5
EB14
331
F4A9
  5
F64B
331
F5C8
  5
F684
331
F5FF
  5
F6BA
331
F63E
  5
F6F9
331
F6B4
  5
FC10
331
F6EB
  5
FF86
331
F72A
  5
100E8
331
FF62
  5
107FA
331
F6F3
  5
10009
331
F4B1
  5
F653
331
F5D0
  5
F68C
331
F607
  5
F6C6
331
F646
  5
F701
331
F67D
  5
F738
331
F732
  5
100F0
331
F771
  5
79E4
331
10553
  5
1087F
331
FF6A
  5
107FB
331
FC1E
  5
10558
331
F6C4
  5
FCAA
331
F60F
  5
F6CF
331
F64E
  5
F709
331
F685
  5
F740
331
F6FB
  5
1006E
331
F73A
  5
1012E
331
FC6D
  5
1016E
331
100DD
  5
10835
331
1016C
  5
1086B
331
FE64
  5
1056E
331
100E5
  5
1083D
331
1055B
  5
1088E
331
10563
  5
10896
331
FE6C
  5
1056C
331
100ED
  5
10844
331
100F5
  5
1084C
331
1056B
  5
108A0
331
F4B9
  5
F65B
331
F5D8
  5
F692
331
F6CC
  5
FD51
331
F4C1
  5
F663
331
F36A
  5
F631
331
F5E0
  5
F69A
331
F617
  5
F6D7
331
F656
  5
F711
331
F68D
  5
F748
331
F703
  5
10078
331
F742
  5
10136
331
F6D4
  5
FED9
331
F61F
  5
F6E0
331
F372
  5
F639
331
F65E
  5
F719
331
F695
  5
F757
331
F70B
  5
100B9
331
F74A
  5
1013E
331
FB78
  5
10542
331
F713
  5
100C7
331
F666
  5
F721
331
F5B1
  5
F66D
331
F69D
  5
FA6D
331
F6DC
  5
FF4B
331
10573
  5
108A7
331
100C6
  5
10827
331
FCA5
  5
10562
331
FBEF
  5
10553
331
F62F
  5
F6EA
331
F6A5
  5
FB57
331
F71B
  5
100D7
331
FF4B
  5
107F1
331
1006F
  5
1080F
331
FD0D
  5
10563
331
10135
  5
10856
331
10544
  5
10878
331
100D6
  5
1082F
331
FC07
  5
10555
331
FD45
  5
10567
331
10077
  5
10817
331
1013D
  5
1085E
331
1054C
  5
10879
331
F5B9
  5
F675
331
ACF3
  5
EB0E
331
F37A
  5
F640
331
F5F0
  5
F6AA
331
F723
  5
100E0
331
F637
  5
F6F2
331
F4A2
  5
F644
331
F5C1
  5
F67D
331
F5F8
  5
F6B3
331
F66E
  5
F729
331
F6AD
  5
FBD1
331
F6E4
  5
FF61
331
F75A
  5
10166
331
FB41
  5
1053D
331
F63F
  5
F6FA
331
AD03
  5
EB16
331
F4AA
  5
F64C
331
F5C9
  5
F685
331
F600
  5
F6BB
331
F676
  5
F731
331
F6B5
  5
FC11
331
F6EC
  5
FF90
331
F72B
  5
100E9
331
F67E
  5
F739
331
AD0B
  5
EB1A
331
F4B2
  5
F654
331
F5D1
  5
F68D
331
F608
  5
F6C7
331
F647
  5
F702
331
F6F4
  5
1004F
331
F733
  5
100F1
331
100DE
  5
10836
331
FF6B
  5
107FC
331
FC6E
  5
1016D
331
F6C5
  5
FCB1
331
F64F
  5
F70A
331
F686
  5
F741
331
F6FC
  5
1006F
331
F73B
  5
1012F
331
10554
  5
10880
331
1016D
  5
1086C
331
FBD8
  5
1054F
331
FE65
  5
1056F
331
1055C
  5
1088F
331
10564
  5
10898
331
FE6D
  5
1056D
331
100EE
  5
10845
331
1056C
  5
108A1
331
100F6
  5
1084D
331
F4BA
  5
F65C
331
F5D9
  5
F693
331
F610
  5
F6D0
331
F68E
  5
F749
331
F36B
  5
F632
331
F4C2
  5
F664
331
F5E1
  5
F69B
331
F618
  5
F6D8
331
F657
  5
F712
331
F6CD
  5
FD61
331
F704
  5
10079
331
F743
  5
10137
331
FB0A
  5
1016C
331
F6D5
  5
FF15
331
F5E9
  5
F6A3
331
F373
  5
F63A
331
F620
  5
F6E1
331
F65F
  5
F71A
331
F696
  5
F75A
331
F70C
  5
100BB
331
F74B
  5
1013F
331
FC3F
  5
1055B
331
F714
  5
100C8
331
F5B2
  5
F66E
331
F628
  5
108A9
331
F667
  5
F722
331
F69E
  5
FB0E
331
F6DD
  5
FF4C
331
FC9E
  5
10561
331
100C7
  5
10828
331
F71C
  5
100D8
331
F6A6
  5
FB62
331
FF4C
  5
107F2
331
1012E
  5
1084F
331
10070
  5
10810
331
10136
  5
10857
331
100D7
  5
10830
331
1013E
  5
1085F
331
1054D
  5
1087A
331
F5BA
  5
F676
331
F37B
  5
F641
331
F5F1
  5
F6AB
331
F630
  5
F6EB
331
F724
  5
100E1
331
F5F9
  5
F6B4
331
F4A3
  5
F645
331
F5C2
  5
F67E
331
F638
  5
F6F3
331
F66F
  5
F72A
331
F6AE
  5
FBD2
331
F6E5
  5
FF62
331
F640
  5
F6FB
331
AD04
  5
EB11
331
F4AB
  5
F64D
331
F5CA
  5
F686
331
F601
  5
F6C0
331
F677
  5
F732
331
F6B6
  5
FC1D
331
F6ED
  5
FFA3
331
F72C
  5
100EA
331
FB99
  5
1054C
331
F67F
  5
F73A
331
AD0C
  5
EB1C
331
F4B3
  5
F655
331
F5D2
  5
F68E
331
F609
  5
F6C9
331
F648
  5
F703
331
F6F5
  5
10051
331
F734
  5
100F2
331
100DF
  5
10837
331
FB62
  5
10540
331
F687
  5
F742
331
F6C6
  5
FD44
331
F6FD
  5
10072
331
F73C
  5
10130
331
FA5B
  5
1016B
331
10088
  5
799B
331
10166
  5
10865
331
10555
  5
10881
331
100E7
  5
1083E
331
FF7C
  5
107FD
331
FC7F
  5
10556
331
10051
  5
10809
331
1016E
  5
1086D
331
1055D
  5
10890
331
10176
  5
1086E
331
FC97
  5
10560
331
100EF
  5
10846
331
10565
  5
10899
331
1056D
  5
108A2
331
100F7
  5
1084E
331
F650
  5
F70B
331
F4BB
  5
F65D
331
F5DA
  5
F694
331
F611
  5
F6D1
331
F68F
  5
F74A
331
F36C
  5
F633
331
F4C3
  5
F665
331
F5E2
  5
F69C
331
F619
  5
F6D9
331
F658
  5
F713
331
F6CE
  5
FE2E
331
F705
  5
1007A
331
F744
  5
10138
331
F697
  5
F75C
331
F374
  5
F63B
331
F5EA
  5
F6A4
331
F621
  5
F6E2
331
F660
  5
F71B
331
F6D6
  5
FF1A
331
F70D
  5
100BC
331
F74C
  5
10140
331
FFA4
  5
10800
331
FED6
  5
F6A2
331
F6DE
  5
FF4D
331
F5B3
  5
F66F
331
F69F
  5
FB0F
331
F715
  5
100D1
331
FB2B
  5
10177
331
1053E
  5
10872
331
100C8
  5
10829
331
F71D
  5
100D9
331
F6A7
  5
FB6E
331
FF4D
  5
107F3
331
1012F
  5
10850
331
10575
  5
108A8
331
10071
  5
10811
331
10137
  5
10858
331
10079
  5
10819
331
1013F
  5
10860
331
1054E
  5
1087B
331
F37C
  5
F60C
331
F5BB
  5
F677
331
F5F2
  5
F6AC
331
F631
  5
F6EC
331
F668
  5
F723
331
F6E6
  5
FF6A
331
F5C3
  5
F67F
331
ACFD
  5
EB0F
331
F4A4
  5
F646
331
F5FA
  5
F6B5
331
F639
  5
F6F4
331
F670
  5
F72B
331
F6AF
  5
FBDE
331
F725
  5
100E2
331
FC60
  5
1055E
331
F72D
  5
100EB
331
F602
  5
F6C1
331
AD05
  5
EB17
331
F4AC
  5
F64E
331
F5CB
  5
F687
331
F641
  5
F6FC
331
F678
  5
F733
331
F6B7
  5
FC28
331
F6EE
  5
FFA7
331
FF26
  5
10576
331
F649
  5
F704
331
AD0D
  5
EB18
331
F4B4
  5
F656
331
F5D3
  5
F68F
331
F60A
  5
F6CA
331
F680
  5
F73B
331
F6F6
  5
10052
331
F735
  5
100F3
331
100D8
  5
10831
331
FF2E
  5
107EC
331
FC29
  5
10559
331
F6C7
  5
FD45
331
F6FE
  5
10073
331
F73D
  5
10131
331
100E0
  5
10838
331
10167
  5
10866
331
10556
  5
10889
331
100E8
  5
1083F
331
FC90
  5
1055F
331
1055E
  5
10891
331
10177
  5
1086F
331
100B9
  5
10820
331
100F0
  5
10847
331
10566
  5
1089A
331
1056E
  5
108A3
331
F651
  5
F70C
331
F4BC
  5
F65E
331
F5DB
  5
F695
331
F612
  5
F6D2
331
F688
  5
F743
331
F659
  5
F714
331
F36D
  5
F634
331
F4C4
  5
F666
331
F5E3
  5
F69D
331
F61A
  5
F6DB
331
F690
  5
F74B
331
F6CF
  5
FE68
331
F706
  5
1007C
331
F745
  5
10139
331
F698
  5
F76E
331
F375
  5
F604
331
F5AC
  5
F668
331
F5EB
  5
F6A5
331
F622
  5
F6E3
331
F661
  5
F71C
331
F6D7
  5
FF1D
331
F70E
  5
100BD
331
F74D
  5
10141
331
FB83
  5
10543
331
F6DF
  5
FF4E
331
F5B4
  5
F670
331
F62A
  5
F6E5
331
F6A0
  5
FB1B
331
F716
  5
100D2
331
FFA5
  5
10801
331
1053F
  5
10873
331
F71E
  5
100DB
331
FF4E
  5
107F4
331
10130
  5
10851
331
10576
  5
108AA
331
108EE
  5
108EE
331
10072
  5
10812
331
FF56
  5
107F5
331
100D1
  5
1082A
331
10138
  5
10859
331
1007A
  5
1081A
331
10140
  5
10861
331
1054F
  5
1087C
331
F6A8
  5
FB7B
331
F5BC
  5
F678
331
F5F3
  5
F6AE
331
F632
  5
F6ED
331
F669
  5
F724
331
F6E7
  5
FF6B
331
F5C4
  5
F680
331
ACFE
  5
EB13
331
F4A5
  5
F647
331
F5FB
  5
F6B6
331
F63A
  5
F6F5
331
F671
  5
F72C
331
F6B0
  5
FBEA
331
F726
  5
100E3
331
F72E
  5
100EC
331
F5CC
  5
F688
331
AD06
  5
EB19
331
F4AD
  5
F64F
331
F603
  5
F6C2
331
F642
  5
F6FD
331
F679
  5
F734
331
F6B8
  5
FC33
331
F6EF
  5
FFA8
331
FB4C
  5
1053E
331
F736
  5
100F4
331
F64A
  5
F705
331
F4B5
  5
F657
331
F5D4
  5
F690
331
F60B
  5
F6CB
331
F681
  5
F73C
331
F6C0
  5
FC66
331
F6F7
  5
10054
331
10082
  5
7998
331
100D9
  5
10832
331
100E1
  5
10839
331
FBCB
  5
1054D
331
F6FF
  5
10074
331
F73E
  5
10132
331
10168
  5
10867
331
10557
  5
1088A
331
100E9
  5
10840
331
FF7E
  5
107FE
331
10053
  5
1080A
331
1055F
  5
10892
331
100F1
  5
10848
331
10178
  5
10870
331
10567
  5
1089B
331
1056F
  5
108A4
331
F613
  5
F6D3
331
F26E
  5
79E2
331
F4BD
  5
F65F
331
F5DC
  5
F696
331
F652
  5
F70D
331
F689
  5
F744
331
F6C8
  5
FD46
331
F746
  5
1013A
331
F65A
  5
F715
331
F36E
  5
F635
331
F4C5
  5
F667
331
F5E4
  5
F69E
331
F61B
  5
F6DC
331
F691
  5
F74C
331
F6D0
  5
FE6B
331
F707
  5
1007D
331
FBE3
  5
10550
331
F662
  5
F71D
331
F376
  5
F63C
331
F5AD
  5
F669
331
F5EC
  5
F6A6
331
F623
  5
F6E4
331
F699
  5
F770
331
F6D8
  5
FF2E
331
F70F
  5
100C3
331
F74E
  5
10153
331
FFA6
  5
10802
331
FC4A
  5
1055C
331
F6A1
  5
FB26
331
F5B5
  5
F671
331
ACEF
  5
EB07
331
F62B
  5
F6E6
331
F717
  5
100D3
331
10131
  5
10852
331
FBFB
  5
10554
331
F71F
  5
100DC
331
FF18
  5
10573
331
10540
  5
10874
331
1003E
  5
10806
331
FF57
  5
107F6
331
10073
  5
10813
331
100D2
  5
1082B
331
10139
  5
1085A
331
1007B
  5
1081B
331
10141
  5
10862
331
F6A9
  5
FB87
331
F5BD
  5
F679
331
F5F4
  5
F6AF
331
F633
  5
F6EE
331
F66A
  5
F725
331
F6E0
  5
FF56
331
F6B1
  5
FBEB
331
F4A6
  5
F648
331
ACFF
  5
EB10
331
F5C5
  5
F681
331
F5FC
  5
F6B7
331
F63B
  5
F6F6
331
F672
  5
F72D
331
F6E8
  5
FF79
331
F727
  5
100E4
331
FC13
  5
10557
331
F6F0
  5
FFA9
331
F5CD
  5
F689
331
F4AE
  5
F650
331
F604
  5
F6C3
331
F643
  5
F6FE
331
F67A
  5
F735
331
F6B9
  5
FC3E
331
F72F
  5
100ED
331
FDB1
  5
10568
331
10550
  5
1087D
331
F737
  5
100F5
331
F60C
  5
F6CC
331
F4B6
  5
F658
331
F64B
  5
F706
331
F682
  5
F73D
331
F6C1
  5
FC72
331
F6F8
  5
10064
331
FE29
  5
1056A
331
100E2
  5
1083A
331
F73F
  5
10133
331
FBCC
  5
1054E
331
10169
  5
10868
331
10558
  5
1088B
331
100EA
  5
10841
331
10054
  5
1080B
331
10560
  5
10893
331
100F2
  5
10849
331
1005C
  5
1080C
331
100BB
  5
10821
331
10179
  5
10871
331
10568
  5
1089C
  0
IMAGEDEF
  5
20C7
102
{ACAD_REACTORS
330
20C6
102
}
330
20C6
100
AcDbRasterImageDef
 90
        0
  1
C:\Users\smarquiss\AppData\Local\Microsoft\Windows\Temporary Internet Files\Content.Outlook\OEE8WL30\1816_001.jpg
 10
5100.0
 20
3300.0
 11
0.0846666666666667
 21
0.0846666666666667
280
     1
281
     5
  0
LAYOUT
  5
1D
102
{ACAD_REACTORS
330
19
102
}
330
19
100
AcDbPlotSettings
  1

  2
HP Photosmart C7200 series
  4

  6

 40
0.0
 41
0.0
 42
0.0
 43
0.0
 44
0.0
 45
0.0
 46
0.0
 47
0.0
 48
0.0
 49
0.0
140
0.0
141
0.0
142
1.0
143
1.0
 70
   688
 72
     0
 73
     0
 74
     5
  7

 75
    16
147
1.0
 76
     0
 77
     2
 78
   300
148
0.0
149
0.0
100
AcDbLayout
  1
Layout1
 70
     1
 71
     1
 10
0.0
 20
0.0
 11
12.0
 21
9.0
 12
0.0
 22
0.0
 32
0.0
 14
1.000000000000000E+20
 24
1.000000000000000E+20
 34
1.000000000000000E+20
 15
-1.000000000000000E+20
 25
-1.000000000000000E+20
 35
-1.000000000000000E+20
146
0.0
 13
0.0
 23
0.0
 33
0.0
 16
1.0
 26
0.0
 36
0.0
 17
0.0
 27
1.0
 37
0.0
 76
     0
330
1A
  0
LAYOUT
  5
21
102
{ACAD_XDICTIONARY
360
635
102
}
102
{ACAD_REACTORS
330
19
102
}
330
19
100
AcDbPlotSettings
  1

  2
none_device
  4
Letter_(8.50_x_11.00_Inches)
  6

 40
6.349999904632568
 41
6.349999904632568
 42
6.350006103515625
 43
6.350006103515625
 44
215.8999938964844
 45
279.3999938964844
 46
0.0
 47
0.0
 48
0.0
 49
0.0
140
0.0
141
0.0
142
1.0
143
318.9910053158289
 70
 11952
 72
     0
 73
     1
 74
     0
  7

 75
     0
147
0.0031348846310256
 76
     0
 77
     2
 78
   300
148
25669.14062628684
149
13230.12670718308
100
AcDbLayout
  1
Model
 70
     1
 71
     0
 10
0.0
 20
0.0
 11
12.0
 21
9.0
 12
0.0
 22
0.0
 32
0.0
 14
0.0
 24
0.0
 34
0.0
 15
0.0
 25
0.0
 35
0.0
146
0.0
 13
0.0
 23
0.0
 33
0.0
 16
1.0
 26
0.0
 36
0.0
 17
0.0
 27
1.0
 37
0.0
 76
     0
330
1E
331
30D
1001
ACAD_PSEXT
1000
None
1000
None
1000
Not applicable
1000
The layout will not be plotted unless a new plotter configuration name is selected.
1070
     0
  0
MATERIAL
  5
318
102
{ACAD_XDICTIONARY
360
319
102
}
102
{ACAD_REACTORS
330
30F
102
}
330
30F
100
AcDbMaterial
  1
ByBlock
 72
     0
 43
0.0208333333333333
 43
0.0
 43
0.0
 43
0.0
 43
0.0
 43
0.0208333333333333
 43
0.0
 43
0.0
 43
0.0
 43
0.0
 43
1.0
 43
0.0
 43
0.0
 43
0.0
 43
0.0
 43
1.0
 77
     0
 47
0.0208333333333333
 47
0.0
 47
0.0
 47
0.0
 47
0.0
 47
0.0208333333333333
 47
0.0
 47
0.0
 47
0.0
 47
0.0
 47
1.0
 47
0.0
 47
0.0
 47
0.0
 47
0.0
 47
1.0
171
     0
 49
0.0208333333333333
 49
0.0
 49
0.0
 49
0.0
 49
0.0
 49
0.0208333333333333
 49
0.0
 49
0.0
 49
0.0
 49
0.0
 49
1.0
 49
0.0
 49
0.0
 49
0.0
 49
0.0
 49
1.0
175
     0
142
0.0208333333333333
142
0.0
142
0.0
142
0.0
142
0.0
142
0.0208333333333333
142
0.0
142
0.0
142
0.0
142
0.0
142
1.0
142
0.0
142
0.0
142
0.0
142
0.0
142
1.0
179
     0
144
0.0208333333333333
144
0.0
144
0.0
144
0.0
144
0.0
144
0.0208333333333333
144
0.0
144
0.0
144
0.0
144
0.0
144
1.0
144
0.0
144
0.0
144
0.0
144
0.0
144
1.0
147
0.0208333333333333
147
0.0
147
0.0
147
0.0
147
0.0
147
0.0208333333333333
147
0.0
147
0.0
147
0.0
147
0.0
147
1.0
147
0.0
147
0.0
147
0.0
147
0.0
147
1.0
  0
MATERIAL
  5
310
102
{ACAD_XDICTIONARY
360
311
102
}
102
{ACAD_REACTORS
330
30F
102
}
330
30F
100
AcDbMaterial
  1
ByLayer
 72
     0
 43
0.0208333333333333
 43
0.0
 43
0.0
 43
0.0
 43
0.0
 43
0.0208333333333333
 43
0.0
 43
0.0
 43
0.0
 43
0.0
 43
1.0
 43
0.0
 43
0.0
 43
0.0
 43
0.0
 43
1.0
 77
     0
 47
0.0208333333333333
 47
0.0
 47
0.0
 47
0.0
 47
0.0
 47
0.0208333333333333
 47
0.0
 47
0.0
 47
0.0
 47
0.0
 47
1.0
 47
0.0
 47
0.0
 47
0.0
 47
0.0
 47
1.0
171
     0
 49
0.0208333333333333
 49
0.0
 49
0.0
 49
0.0
 49
0.0
 49
0.0208333333333333
 49
0.0
 49
0.0
 49
0.0
 49
0.0
 49
1.0
 49
0.0
 49
0.0
 49
0.0
 49
0.0
 49
1.0
175
     0
142
0.0208333333333333
142
0.0
142
0.0
142
0.0
142
0.0
142
0.0208333333333333
142
0.0
142
0.0
142
0.0
142
0.0
142
1.0
142
0.0
142
0.0
142
0.0
142
0.0
142
1.0
179
     0
144
0.0208333333333333
144
0.0
144
0.0
144
0.0
144
0.0
144
0.0208333333333333
144
0.0
144
0.0
144
0.0
144
0.0
144
1.0
144
0.0
144
0.0
144
0.0
144
0.0
144
1.0
147
0.0208333333333333
147
0.0
147
0.0
147
0.0
147
0.0
147
0.0208333333333333
147
0.0
147
0.0
147
0.0
147
0.0
147
1.0
147
0.0
147
0.0
147
0.0
147
0.0
147
1.0
  0
MATERIAL
  5
320
102
{ACAD_XDICTIONARY
360
321
102
}
102
{ACAD_REACTORS
330
30F
102
}
330
30F
100
AcDbMaterial
  1
Global
 72
     0
 43
0.0208333333333333
 43
0.0
 43
0.0
 43
0.0
 43
0.0
 43
0.0208333333333333
 43
0.0
 43
0.0
 43
0.0
 43
0.0
 43
1.0
 43
0.0
 43
0.0
 43
0.0
 43
0.0
 43
1.0
 77
     0
 47
0.0208333333333333
 47
0.0
 47
0.0
 47
0.0
 47
0.0
 47
0.0208333333333333
 47
0.0
 47
0.0
 47
0.0
 47
0.0
 47
1.0
 47
0.0
 47
0.0
 47
0.0
 47
0.0
 47
1.0
171
     0
 49
0.0208333333333333
 49
0.0
 49
0.0
 49
0.0
 49
0.0
 49
0.0208333333333333
 49
0.0
 49
0.0
 49
0.0
 49
0.0
 49
1.0
 49
0.0
 49
0.0
 49
0.0
 49
0.0
 49
1.0
175
     0
142
0.0208333333333333
142
0.0
142
0.0
142
0.0
142
0.0
142
0.0208333333333333
142
0.0
142
0.0
142
0.0
142
0.0
142
1.0
142
0.0
142
0.0
142
0.0
142
0.0
142
1.0
179
     0
144
0.0208333333333333
144
0.0
144
0.0
144
0.0
144
0.0
144
0.0208333333333333
144
0.0
144
0.0
144
0.0
144
0.0
144
1.0
144
0.0
144
0.0
144
0.0
144
0.0
144
1.0
147
0.0208333333333333
147
0.0
147
0.0
147
0.0
147
0.0
147
0.0208333333333333
147
0.0
147
0.0
147
0.0
147
0.0
147
1.0
147
0.0
147
0.0
147
0.0
147
0.0
147
1.0
  0
MLEADERSTYLE
  5
357
102
{ACAD_XDICTIONARY
360
4B48
102
}
102
{ACAD_REACTORS
330
356
102
}
330
356
100
AcDbMLeaderStyle
179
     2
170
     2
171
     1
172
     0
 90
        2
 40
0.0
 41
0.0
173
     1
 91
-1056964608
340
13
 92
       -2
290
     1
 42
0.09
291
     1
 43
0.36
  3
Standard
 44
0.18
300

342
11
174
     1
178
     6
175
     1
176
     0
 93
-1056964608
 45
0.18
292
     0
297
     0
 46
0.18
 94
-1056964608
 47
1.0
 49
1.0
140
1.0
293
     1
141
0.0
294
     1
177
     0
142
1.0
295
     0
296
     0
143
0.125
271
     0
272
     9
273
     9
  0
MLINESTYLE
  5
17
102
{ACAD_REACTORS
330
16
102
}
330
16
100
AcDbMlineStyle
  2
STANDARD
 70
     0
  3

 62
   256
 51
90.0
 52
90.0
 71
     2
 49
0.5
 62
   256
  6
BYLAYER
 49
-0.5
 62
   256
  6
BYLAYER
  0
ACDBPLACEHOLDER
  5
F
102
{ACAD_REACTORS
330
E
102
}
330
E
  0
SCALE
  5
345
102
{ACAD_REACTORS
330
344
102
}
330
344
100
AcDbScale
 70
     0
300
1:1
140
1.0
141
1.0
290
     1
  0
SCALE
  5
346
102
{ACAD_REACTORS
330
344
102
}
330
344
100
AcDbScale
 70
     0
300
1/128" = 1'-0"
140
0.0078125
141
12.0
290
     0
  0
SCALE
  5
347
102
{ACAD_REACTORS
330
344
102
}
330
344
100
AcDbScale
 70
     0
300
1/64" = 1'-0"
140
0.015625
141
12.0
290
     0
  0
SCALE
  5
348
102
{ACAD_REACTORS
330
344
102
}
330
344
100
AcDbScale
 70
     0
300
1/32" = 1'-0"
140
0.03125
141
12.0
290
     0
  0
SCALE
  5
349
102
{ACAD_REACTORS
330
344
102
}
330
344
100
AcDbScale
 70
     0
300
1/16" = 1'-0"
140
0.0625
141
12.0
290
     0
  0
SCALE
  5
34A
102
{ACAD_REACTORS
330
344
102
}
330
344
100
AcDbScale
 70
     0
300
3/32" = 1'-0"
140
0.09375
141
12.0
290
     0
  0
SCALE
  5
34B
102
{ACAD_REACTORS
330
344
102
}
330
344
100
AcDbScale
 70
     0
300
1/8" = 1'-0"
140
0.125
141
12.0
290
     0
  0
SCALE
  5
34C
102
{ACAD_REACTORS
330
344
102
}
330
344
100
AcDbScale
 70
     0
300
3/16" = 1'-0"
140
0.1875
141
12.0
290
     0
  0
SCALE
  5
34D
102
{ACAD_REACTORS
330
344
102
}
330
344
100
AcDbScale
 70
     0
300
1/4" = 1'-0"
140
0.25
141
12.0
290
     0
  0
SCALE
  5
34E
102
{ACAD_REACTORS
330
344
102
}
330
344
100
AcDbScale
 70
     0
300
3/8" = 1'-0"
140
0.375
141
12.0
290
     0
  0
SCALE
  5
34F
102
{ACAD_REACTORS
330
344
102
}
330
344
100
AcDbScale
 70
     0
300
1/2" = 1'-0"
140
0.5
141
12.0
290
     0
  0
SCALE
  5
350
102
{ACAD_REACTORS
330
344
102
}
330
344
100
AcDbScale
 70
     0
300
3/4" = 1'-0"
140
0.75
141
12.0
290
     0
  0
SCALE
  5
351
102
{ACAD_REACTORS
330
344
102
}
330
344
100
AcDbScale
 70
     0
300
1" = 1'-0"
140
1.0
141
12.0
290
     0
  0
SCALE
  5
352
102
{ACAD_REACTORS
330
344
102
}
330
344
100
AcDbScale
 70
     0
300
1-1/2" = 1'-0"
140
1.5
141
12.0
290
     0
  0
SCALE
  5
353
102
{ACAD_REACTORS
330
344
102
}
330
344
100
AcDbScale
 70
     0
300
3" = 1'-0"
140
3.0
141
12.0
290
     0
  0
SCALE
  5
354
102
{ACAD_REACTORS
330
344
102
}
330
344
100
AcDbScale
 70
     0
300
6" = 1'-0"
140
6.0
141
12.0
290
     0
  0
SCALE
  5
355
102
{ACAD_REACTORS
330
344
102
}
330
344
100
AcDbScale
 70
     0
300
1'-0" = 1'-0"
140
12.0
141
12.0
290
     0
  0
TABLESTYLE
  5
343
102
{ACAD_XDICTIONARY
360
685
102
}
102
{ACAD_REACTORS
330
342
102
}
330
342
100
AcDbTableStyle
280
     0
  3
Standard
 70
     0
 71
     0
 40
0.06
 41
0.06
280
     0
281
     0
  7
STANDARD
140
0.18
170
     2
 62
     0
 63
     7
283
     0
 90
      512
 91
        0
  1

274
    -2
284
     1
 64
     0
275
    -2
285
     1
 65
     0
276
    -2
286
     1
 66
     0
277
    -2
287
     1
 67
     0
278
    -2
288
     1
 68
     0
279
    -2
289
     1
 69
     0
  7
STANDARD
140
0.25
170
     5
 62
     0
 63
     7
283
     0
 90
      512
 91
        0
  1

274
    -2
284
     1
 64
     0
275
    -2
285
     1
 65
     0
276
    -2
286
     1
 66
     0
277
    -2
287
     1
 67
     0
278
    -2
288
     1
 68
     0
279
    -2
289
     1
 69
     0
  7
STANDARD
140
0.18
170
     5
 62
     0
 63
     7
283
     0
 90
      512
 91
        0
  1

274
    -2
284
     1
 64
     0
275
    -2
285
     1
 65
     0
276
    -2
286
     1
 66
     0
277
    -2
287
     1
 67
     0
278
    -2
288
     1
 68
     0
279
    -2
289
     1
 69
     0
  0
VISUALSTYLE
  5
32E
102
{ACAD_XDICTIONARY
360
1F0F
102
}
102
{ACAD_REACTORS
330
328
102
}
330
328
100
AcDbVisualStyle
  2
2dWireframe
 70
     4
177
     2
291
     0
 71
     0
176
     1
 72
     2
176
     1
 73
     0
176
     1
 90
        0
176
     1
 40
0.6
176
     1
 41
30.0
176
     1
 63
     7
421
 16777215
176
     1
 74
     1
176
     1
 91
        4
176
     1
 64
     7
176
     1
 65
   257
176
     1
 75
     1
176
     1
175
     1
176
     1
 42
1.0
176
     1
 92
        0
176
     1
 66
   257
176
     1
 43
1.0
176
     1
 76
     1
176
     1
 77
     6
176
     1
 78
     2
176
     1
 67
     7
176
     1
 79
     5
176
     1
170
     0
176
     1
171
     0
176
     1
290
     0
176
     1
 93
        1
176
     1
 44
0.0
176
     1
173
     0
176
     1
  0
VISUALSTYLE
  5
1F38
102
{ACAD_REACTORS
330
328
102
}
330
328
100
AcDbVisualStyle
  2
3D Hidden
 70
     6
177
     2
291
     0
 71
     1
176
     1
 72
     2
176
     1
 73
     2
176
     1
 90
        0
176
     1
 40
0.6
176
     1
 41
30.0
176
     1
 63
     7
421
 16777215
176
     1
 74
     2
176
     1
 91
        2
176
     1
 64
     7
176
     1
 65
   257
176
     1
 75
     2
176
     1
175
     1
176
     1
 42
179.0
176
     1
 92
        0
176
     1
 66
   257
176
     1
 43
1.0
176
     1
 76
     1
176
     1
 77
     6
176
     1
 78
     2
176
     1
 67
     7
176
     1
 79
     3
176
     1
170
     0
176
     1
171
     0
176
     1
290
     0
176
     1
 93
        1
176
     1
 44
0.0
176
     1
173
     0
176
     1
  0
VISUALSTYLE
  5
1F37
102
{ACAD_REACTORS
330
328
102
}
330
328
100
AcDbVisualStyle
  2
3dWireframe
 70
     5
177
     2
291
     0
 71
     0
176
     1
 72
     2
176
     1
 73
     0
176
     1
 90
        0
176
     1
 40
0.6
176
     1
 41
30.0
176
     1
 63
     7
421
 16777215
176
     1
 74
     1
176
     1
 91
        4
176
     1
 64
     7
176
     1
 65
   257
176
     1
 75
     1
176
     1
175
     1
176
     1
 42
1.0
176
     1
 92
        0
176
     1
 66
   257
176
     1
 43
1.0
176
     1
 76
     1
176
     1
 77
     6
176
     1
 78
     2
176
     1
 67
     7
176
     1
 79
     5
176
     1
170
     0
176
     1
171
     0
176
     1
290
     0
176
     1
 93
        1
176
     1
 44
0.0
176
     1
173
     0
176
     1
  0
VISUALSTYLE
  5
32D
102
{ACAD_XDICTIONARY
360
1F0D
102
}
102
{ACAD_REACTORS
330
328
102
}
330
328
100
AcDbVisualStyle
  2
Basic
 70
     7
177
     2
291
     1
 71
     1
176
     1
 72
     0
176
     1
 73
     1
176
     1
 90
        0
176
     1
 40
0.6
176
     1
 41
30.0
176
     1
 63
     7
421
 16777215
176
     1
 74
     0
176
     1
 91
        4
176
     1
 64
     7
176
     1
 65
   257
176
     1
 75
     1
176
     1
175
     1
176
     1
 42
1.0
176
     1
 92
        8
176
     1
 66
     7
176
     1
 43
1.0
176
     1
 76
     1
176
     1
 77
     6
176
     1
 78
     2
176
     1
 67
     7
176
     1
 79
     5
176
     1
170
     0
176
     1
171
     0
176
     1
290
     0
176
     1
 93
        1
176
     1
 44
0.0
176
     1
173
     0
176
     1
  0
VISUALSTYLE
  5
334
102
{ACAD_XDICTIONARY
360
1F1B
102
}
102
{ACAD_REACTORS
330
328
102
}
330
328
100
AcDbVisualStyle
  2
Brighten
 70
    12
177
     2
291
     1
 71
     2
176
     1
 72
     2
176
     1
 73
     0
176
     1
 90
        0
176
     1
 40
0.6
176
     1
 41
30.0
176
     1
 63
     7
421
 16777215
176
     1
 74
     1
176
     1
 91
        4
176
     1
 64
     7
176
     1
 65
   257
176
     1
 75
     1
176
     1
175
     1
176
     1
 42
1.0
176
     1
 92
        8
176
     1
 66
     7
176
     1
 43
1.0
176
     1
 76
     1
176
     1
 77
     6
176
     1
 78
     2
176
     1
 67
     7
176
     1
 79
     5
176
     1
170
     0
176
     1
171
     0
176
     1
290
     0
176
     1
 93
        1
176
     1
 44
50.0
176
     1
173
     0
176
     1
  0
VISUALSTYLE
  5
338
102
{ACAD_XDICTIONARY
360
1F23
102
}
102
{ACAD_REACTORS
330
328
102
}
330
328
100
AcDbVisualStyle
  2
ColorChange
 70
    16
177
     2
291
     1
 71
     2
176
     1
 72
     2
176
     1
 73
     3
176
     1
 90
        0
176
     1
 40
0.6
176
     1
 41
30.0
176
     1
 63
     8
421
  8421504
176
     1
 74
     1
176
     1
 91
        4
176
     1
 64
     7
176
     1
 65
   257
176
     1
 75
     1
176
     1
175
     1
176
     1
 42
1.0
176
     1
 92
        8
176
     1
 66
     8
424
  8421504
176
     1
 43
1.0
176
     1
 76
     1
176
     1
 77
     6
176
     1
 78
     2
176
     1
 67
     7
176
     1
 79
     5
176
     1
170
     0
176
     1
171
     0
176
     1
290
     0
176
     1
 93
        1
176
     1
 44
0.0
176
     1
173
     0
176
     1
  0
VISUALSTYLE
  5
331
102
{ACAD_XDICTIONARY
360
1F15
102
}
102
{ACAD_REACTORS
330
328
102
}
330
328
100
AcDbVisualStyle
  2
Conceptual
 70
     9
177
     2
291
     0
 71
     3
176
     1
 72
     2
176
     1
 73
     0
176
     1
 90
        0
176
     1
 40
0.6
176
     1
 41
30.0
176
     1
 63
     7
421
 16777215
176
     1
 74
     2
176
     1
 91
        2
176
     1
 64
     7
176
     1
 65
   257
176
     1
 75
     1
176
     1
175
     1
176
     1
 42
179.0
176
     1
 92
        8
176
     1
 66
     7
176
     1
 43
1.0
176
     1
 76
     1
176
     1
 77
     6
176
     1
 78
     2
176
     1
 67
     7
176
     1
 79
     3
176
     1
170
     0
176
     1
171
     0
176
     1
290
     0
176
     1
 93
        1
176
     1
 44
0.0
176
     1
173
     0
176
     1
  0
VISUALSTYLE
  5
333
102
{ACAD_XDICTIONARY
360
1F19
102
}
102
{ACAD_REACTORS
330
328
102
}
330
328
100
AcDbVisualStyle
  2
Dim
 70
    11
177
     2
291
     1
 71
     2
176
     1
 72
     2
176
     1
 73
     0
176
     1
 90
        0
176
     1
 40
0.6
176
     1
 41
30.0
176
     1
 63
     7
421
 16777215
176
     1
 74
     1
176
     1
 91
        4
176
     1
 64
     7
176
     1
 65
   257
176
     1
 75
     1
176
     1
175
     1
176
     1
 42
1.0
176
     1
 92
        8
176
     1
 66
     7
176
     1
 43
1.0
176
     1
 76
     1
176
     1
 77
     6
176
     1
 78
     2
176
     1
 67
     7
176
     1
 79
     5
176
     1
170
     0
176
     1
171
     0
176
     1
290
     0
176
     1
 93
        1
176
     1
 44
-50.0
176
     1
173
     0
176
     1
  0
VISUALSTYLE
  5
340
102
{ACAD_XDICTIONARY
360
1F33
102
}
102
{ACAD_REACTORS
330
328
102
}
330
328
100
AcDbVisualStyle
  2
EdgeColorOff
 70
    22
177
     2
291
     1
 71
     2
176
     0
 72
     2
176
     0
 73
     0
176
     0
 90
        0
176
     0
 40
0.6
176
     0
 41
30.0
176
     0
 63
     7
421
 16777215
176
     0
 74
     1
176
     0
 91
        4
176
     0
 64
     7
176
     0
 65
   257
176
     0
 75
     1
176
     0
175
     1
176
     0
 42
1.0
176
     0
 92
        8
176
     2
 66
     7
176
     0
 43
1.0
176
     0
 76
     1
176
     0
 77
     6
176
     0
 78
     2
176
     0
 67
     7
176
     0
 79
     5
176
     0
170
     0
176
     0
171
     0
176
     0
290
     0
176
     0
 93
        1
176
     0
 44
0.0
176
     0
173
     0
176
     0
  0
VISUALSTYLE
  5
337
102
{ACAD_XDICTIONARY
360
1F21
102
}
102
{ACAD_REACTORS
330
328
102
}
330
328
100
AcDbVisualStyle
  2
Facepattern
 70
    15
177
     2
291
     1
 71
     2
176
     1
 72
     2
176
     1
 73
     0
176
     1
 90
        0
176
     1
 40
0.6
176
     1
 41
30.0
176
     1
 63
     7
421
 16777215
176
     1
 74
     1
176
     1
 91
        4
176
     1
 64
     7
176
     1
 65
   257
176
     1
 75
     1
176
     1
175
     1
176
     1
 42
1.0
176
     1
 92
        8
176
     1
 66
     7
176
     1
 43
1.0
176
     1
 76
     1
176
     1
 77
     6
176
     1
 78
     2
176
     1
 67
     7
176
     1
 79
     5
176
     1
170
     0
176
     1
171
     0
176
     1
290
     0
176
     1
 93
        1
176
     1
 44
0.0
176
     1
173
     0
176
     1
  0
VISUALSTYLE
  5
329
102
{ACAD_XDICTIONARY
360
1F05
102
}
102
{ACAD_REACTORS
330
328
102
}
330
328
100
AcDbVisualStyle
  2
Flat
 70
     0
177
     2
291
     1
 71
     2
176
     1
 72
     1
176
     1
 73
     1
176
     1
 90
        2
176
     1
 40
0.6
176
     1
 41
30.0
176
     1
 63
     7
421
 16777215
176
     1
 74
     0
176
     1
 91
        0
176
     1
 64
     7
176
     1
 65
   257
176
     1
 75
     1
176
     1
175
     1
176
     1
 42
1.0
176
     1
 92
        8
176
     1
 66
     7
176
     1
 43
1.0
176
     1
 76
     1
176
     1
 77
     6
176
     1
 78
     2
176
     1
 67
     7
176
     1
 79
     5
176
     1
170
     0
176
     1
171
     0
176
     1
290
     0
176
     1
 93
       13
176
     1
 44
0.0
176
     1
173
     0
176
     1
  0
VISUALSTYLE
  5
32A
102
{ACAD_XDICTIONARY
360
1F07
102
}
102
{ACAD_REACTORS
330
328
102
}
330
328
100
AcDbVisualStyle
  2
FlatWithEdges
 70
     1
177
     2
291
     1
 71
     2
176
     1
 72
     1
176
     1
 73
     1
176
     1
 90
        2
176
     1
 40
0.6
176
     1
 41
30.0
176
     1
 63
     7
421
 16777215
176
     1
 74
     1
176
     1
 91
        0
176
     1
 64
     7
176
     1
 65
   257
176
     1
 75
     1
176
     1
175
     1
176
     1
 42
1.0
176
     1
 92
        0
176
     1
 66
   257
176
     1
 43
1.0
176
     1
 76
     1
176
     1
 77
     6
176
     1
 78
     2
176
     1
 67
     7
176
     1
 79
     5
176
     1
170
     0
176
     1
171
     0
176
     1
290
     0
176
     1
 93
       13
176
     1
 44
0.0
176
     1
173
     0
176
     1
  0
VISUALSTYLE
  5
32B
102
{ACAD_XDICTIONARY
360
1F09
102
}
102
{ACAD_REACTORS
330
328
102
}
330
328
100
AcDbVisualStyle
  2
Gouraud
 70
     2
177
     2
291
     1
 71
     2
176
     1
 72
     2
176
     1
 73
     1
176
     1
 90
        2
176
     1
 40
0.6
176
     1
 41
30.0
176
     1
 63
     7
421
 16777215
176
     1
 74
     0
176
     1
 91
        0
176
     1
 64
     7
176
     1
 65
   257
176
     1
 75
     1
176
     1
175
     1
176
     1
 42
1.0
176
     1
 92
        0
176
     1
 66
     7
176
     1
 43
1.0
176
     1
 76
     1
176
     1
 77
     6
176
     1
 78
     2
176
     1
 67
     7
176
     1
 79
     5
176
     1
170
     0
176
     1
171
     0
176
     1
290
     0
176
     1
 93
       13
176
     1
 44
0.0
176
     1
173
     0
176
     1
  0
VISUALSTYLE
  5
32C
102
{ACAD_XDICTIONARY
360
1F0B
102
}
102
{ACAD_REACTORS
330
328
102
}
330
328
100
AcDbVisualStyle
  2
GouraudWithEdges
 70
     3
177
     2
291
     1
 71
     2
176
     1
 72
     2
176
     1
 73
     1
176
     1
 90
        2
176
     1
 40
0.6
176
     1
 41
30.0
176
     1
 63
     7
421
 16777215
176
     1
 74
     1
176
     1
 91
        0
176
     1
 64
     7
176
     1
 65
   257
176
     1
 75
     1
176
     1
175
     1
176
     1
 42
1.0
176
     1
 92
        0
176
     1
 66
   257
176
     1
 43
1.0
176
     1
 76
     1
176
     1
 77
     6
176
     1
 78
     2
176
     1
 67
     7
176
     1
 79
     5
176
     1
170
     0
176
     1
171
     0
176
     1
290
     0
176
     1
 93
       13
176
     1
 44
0.0
176
     1
173
     0
176
     1
  0
VISUALSTYLE
  5
330
102
{ACAD_XDICTIONARY
360
1F13
102
}
102
{ACAD_REACTORS
330
328
102
}
330
328
100
AcDbVisualStyle
  2
Hidden
 70
     6
177
     2
291
     0
 71
     1
176
     1
 72
     2
176
     1
 73
     2
176
     1
 90
        0
176
     1
 40
0.6
176
     1
 41
30.0
176
     1
 63
     7
421
 16777215
176
     1
 74
     2
176
     1
 91
        2
176
     1
 64
     7
176
     1
 65
   257
176
     1
 75
     2
176
     1
175
     1
176
     1
 42
40.0
176
     1
 92
        0
176
     1
 66
   257
176
     1
 43
1.0
176
     1
 76
     1
176
     1
 77
     6
176
     1
 78
     2
176
     1
 67
     7
176
     1
 79
     3
176
     1
170
     0
176
     1
171
     0
176
     1
290
     0
176
     1
 93
        1
176
     1
 44
0.0
176
     1
173
     0
176
     1
  0
VISUALSTYLE
  5
33E
102
{ACAD_XDICTIONARY
360
1F2F
102
}
102
{ACAD_REACTORS
330
328
102
}
330
328
100
AcDbVisualStyle
  2
JitterOff
 70
    20
177
     2
291
     1
 71
     2
176
     0
 72
     2
176
     0
 73
     0
176
     0
 90
        0
176
     0
 40
0.6
176
     0
 41
30.0
176
     0
 63
     7
421
 16777215
176
     0
 74
     1
176
     0
 91
        4
176
     0
 64
     7
176
     0
 65
   257
176
     0
 75
     1
176
     0
175
     1
176
     0
 42
1.0
176
     0
 92
       10
176
     2
 66
     7
176
     0
 43
1.0
176
     0
 76
     1
176
     0
 77
     6
176
     0
 78
     2
176
     0
 67
     7
176
     0
 79
     5
176
     0
170
     0
176
     0
171
     0
176
     0
290
     0
176
     0
 93
        1
176
     0
 44
0.0
176
     0
173
     0
176
     0
  0
VISUALSTYLE
  5
336
102
{ACAD_XDICTIONARY
360
1F1F
102
}
102
{ACAD_REACTORS
330
328
102
}
330
328
100
AcDbVisualStyle
  2
Linepattern
 70
    14
177
     2
291
     1
 71
     2
176
     1
 72
     2
176
     1
 73
     0
176
     1
 90
        0
176
     1
 40
0.6
176
     1
 41
30.0
176
     1
 63
     7
421
 16777215
176
     1
 74
     1
176
     1
 91
        4
176
     1
 64
     7
176
     1
 65
   257
176
     1
 75
     7
176
     1
175
     7
176
     1
 42
1.0
176
     1
 92
        8
176
     1
 66
     7
176
     1
 43
1.0
176
     1
 76
     1
176
     1
 77
     6
176
     1
 78
     2
176
     1
 67
     7
176
     1
 79
     5
176
     1
170
     0
176
     1
171
     0
176
     1
290
     0
176
     1
 93
        1
176
     1
 44
0.0
176
     1
173
     0
176
     1
  0
VISUALSTYLE
  5
33F
102
{ACAD_XDICTIONARY
360
1F31
102
}
102
{ACAD_REACTORS
330
328
102
}
330
328
100
AcDbVisualStyle
  2
OverhangOff
 70
    21
177
     2
291
     1
 71
     2
176
     0
 72
     2
176
     0
 73
     0
176
     0
 90
        0
176
     0
 40
0.6
176
     0
 41
30.0
176
     0
 63
     7
421
 16777215
176
     0
 74
     1
176
     0
 91
        4
176
     0
 64
     7
176
     0
 65
   257
176
     0
 75
     1
176
     0
175
     1
176
     0
 42
1.0
176
     0
 92
        9
176
     2
 66
     7
176
     0
 43
1.0
176
     0
 76
     1
176
     0
 77
     6
176
     0
 78
     2
176
     0
 67
     7
176
     0
 79
     5
176
     0
170
     0
176
     0
171
     0
176
     0
290
     0
176
     0
 93
        1
176
     0
 44
0.0
176
     0
173
     0
176
     0
  0
VISUALSTYLE
  5
332
102
{ACAD_XDICTIONARY
360
1F17
102
}
102
{ACAD_REACTORS
330
328
102
}
330
328
100
AcDbVisualStyle
  2
Realistic
 70
     8
177
     2
291
     0
 71
     2
176
     1
 72
     2
176
     1
 73
     0
176
     1
 90
        2
176
     1
 40
0.6
176
     1
 41
30.0
176
     1
 63
     7
421
 16777215
176
     1
 74
     0
176
     1
 91
        0
176
     1
 64
     7
176
     1
 65
   257
176
     1
 75
     1
176
     1
175
     1
176
     1
 42
1.0
176
     1
 92
        8
176
     1
 66
   257
176
     1
 43
1.0
176
     1
 76
     1
176
     1
 77
     6
176
     1
 78
     2
176
     1
 67
     7
176
     1
 79
     3
176
     1
170
     0
176
     1
171
     0
176
     1
290
     0
176
     1
 93
       13
176
     1
 44
0.0
176
     1
173
     0
176
     1
  0
VISUALSTYLE
  5
33D
102
{ACAD_XDICTIONARY
360
1F2D
102
}
102
{ACAD_REACTORS
330
328
102
}
330
328
100
AcDbVisualStyle
  2
Shaded
 70
    27
177
     2
291
     0
 71
     2
176
     1
 72
     2
176
     1
 73
     1
176
     1
 90
        2
176
     1
 40
0.6
176
     1
 41
30.0
176
     1
 63
     7
421
 16777215
176
     1
 74
     0
176
     1
 91
        4
176
     1
 64
     7
176
     1
 65
   257
176
     1
 75
     1
176
     1
175
     1
176
     1
 42
1.0
176
     1
 92
        8
176
     1
 66
   257
176
     1
 43
1.0
176
     1
 76
     1
176
     1
 77
     6
176
     1
 78
     2
176
     1
 67
     8
425
  7895160
176
     1
 79
     3
176
     1
170
     0
176
     1
171
     0
176
     1
290
     0
176
     1
 93
        5
176
     1
 44
0.0
176
     1
173
     0
176
     1
  0
VISUALSTYLE
  5
33C
102
{ACAD_XDICTIONARY
360
1F2B
102
}
102
{ACAD_REACTORS
330
328
102
}
330
328
100
AcDbVisualStyle
  2
Shaded with edges
 70
    26
177
     2
291
     0
 71
     2
176
     1
 72
     2
176
     1
 73
     1
176
     1
 90
        2
176
     1
 40
0.6
176
     1
 41
30.0
176
     1
 63
     7
421
 16777215
176
     1
 74
     1
176
     1
 91
       10
176
     1
 64
     7
176
     1
 65
   257
176
     1
 75
     2
176
     1
175
     1
176
     1
 42
1.0
176
     1
 92
        8
176
     1
 66
   257
176
     1
 43
1.0
176
     1
 76
     1
176
     1
 77
     6
176
     1
 78
     2
176
     1
 67
     7
176
     1
 79
     3
176
     1
170
     0
176
     1
171
     0
176
     1
290
     0
176
     1
 93
        5
176
     1
 44
0.0
176
     1
173
     0
176
     1
  0
VISUALSTYLE
  5
339
102
{ACAD_XDICTIONARY
360
1F25
102
}
102
{ACAD_REACTORS
330
328
102
}
330
328
100
AcDbVisualStyle
  2
Shades of Gray
 70
    23
177
     2
291
     0
 71
     2
176
     1
 72
     2
176
     1
 73
     3
176
     1
 90
        0
176
     1
 40
0.6
176
     1
 41
30.0
176
     1
 63
     7
421
 16777215
176
     1
 74
     2
176
     1
 91
        2
176
     1
 64
     7
176
     1
 65
     7
176
     1
 75
     1
176
     1
175
     1
176
     1
 42
40.0
176
     1
 92
        8
176
     1
 66
     7
176
     1
 43
1.0
176
     1
 76
     1
176
     1
 77
     6
176
     1
 78
     2
176
     1
 67
     7
176
     1
 79
     3
176
     1
170
     0
176
     1
171
     0
176
     1
290
     0
176
     1
 93
        1
176
     1
 44
0.0
176
     1
173
     0
176
     1
  0
VISUALSTYLE
  5
33A
102
{ACAD_XDICTIONARY
360
1F27
102
}
102
{ACAD_REACTORS
330
328
102
}
330
328
100
AcDbVisualStyle
  2
Sketchy
 70
    24
177
     2
291
     0
 71
     1
176
     1
 72
     2
176
     1
 73
     2
176
     1
 90
        0
176
     1
 40
0.6
176
     1
 41
30.0
176
     1
 63
     7
421
 16777215
176
     1
 74
     2
176
     1
 91
        2
176
     1
 64
     7
176
     1
 65
     7
176
     1
 75
     1
176
     1
175
     1
176
     1
 42
40.0
176
     1
 92
       11
176
     1
 66
     7
176
     1
 43
1.0
176
     1
 76
     1
176
     1
 77
     6
176
     1
 78
     2
176
     1
 67
     7
176
     1
 79
     6
176
     1
170
     0
176
     1
171
     0
176
     1
290
     0
176
     1
 93
        1
176
     1
 44
0.0
176
     1
173
     0
176
     1
  0
VISUALSTYLE
  5
335
102
{ACAD_XDICTIONARY
360
1F1D
102
}
102
{ACAD_REACTORS
330
328
102
}
330
328
100
AcDbVisualStyle
  2
Thicken
 70
    13
177
     2
291
     1
 71
     2
176
     1
 72
     2
176
     1
 73
     0
176
     1
 90
        0
176
     1
 40
0.6
176
     1
 41
30.0
176
     1
 63
     7
421
 16777215
176
     1
 74
     1
176
     1
 91
        4
176
     1
 64
     7
176
     1
 65
   257
176
     1
 75
     1
176
     1
175
     1
176
     1
 42
1.0
176
     1
 92
       12
176
     1
 66
     7
176
     1
 43
1.0
176
     1
 76
     1
176
     1
 77
     6
176
     1
 78
     2
176
     1
 67
     7
176
     1
 79
     5
176
     1
170
     0
176
     1
171
     0
176
     1
290
     0
176
     1
 93
        1
176
     1
 44
0.0
176
     1
173
     0
176
     1
  0
VISUALSTYLE
  5
32F
102
{ACAD_XDICTIONARY
360
1F11
102
}
102
{ACAD_REACTORS
330
328
102
}
330
328
100
AcDbVisualStyle
  2
Wireframe
 70
     5
177
     2
291
     0
 71
     0
176
     1
 72
     2
176
     1
 73
     0
176
     1
 90
        0
176
     1
 40
0.6
176
     1
 41
30.0
176
     1
 63
     7
421
 16777215
176
     1
 74
     1
176
     1
 91
        4
176
     1
 64
     7
176
     1
 65
   257
176
     1
 75
     1
176
     1
175
     1
176
     1
 42
1.0
176
     1
 92
        0
176
     1
 66
   257
176
     1
 43
1.0
176
     1
 76
     1
176
     1
 77
     6
176
     1
 78
     2
176
     1
 67
     7
176
     1
 79
     3
176
     1
170
     0
176
     1
171
     0
176
     1
290
     0
176
     1
 93
        1
176
     1
 44
0.0
176
     1
173
     0
176
     1
  0
VISUALSTYLE
  5
33B
102
{ACAD_XDICTIONARY
360
1F29
102
}
102
{ACAD_REACTORS
330
328
102
}
330
328
100
AcDbVisualStyle
  2
X-Ray
 70
    25
177
     2
291
     0
 71
     2
176
     1
 72
     2
176
     1
 73
     1
176
     1
 90
        1
176
     1
 40
0.5
176
     1
 41
30.0
176
     1
 63
     7
421
 16777215
176
     1
 74
     1
176
     1
 91
        0
176
     1
 64
     7
176
     1
 65
   257
176
     1
 75
     1
176
     1
175
     1
176
     1
 42
1.0
176
     1
 92
        8
176
     1
 66
     7
176
     1
 43
1.0
176
     1
 76
     1
176
     1
 77
     6
176
     1
 78
     2
176
     1
 67
     7
176
     1
 79
     3
176
     1
170
     0
176
     1
171
     0
176
     1
290
     0
176
     1
 93
       13
176
     1
 44
0.0
176
     1
173
     0
176
     1
  0
DICTIONARYVAR
  5
6BE
102
{ACAD_REACTORS
330
1E3
102
}
330
1E3
100
DictionaryVariables
280
     0
  1
1:1
  0
DICTIONARYVAR
  5
6BC
102
{ACAD_REACTORS
330
1E3
102
}
330
1E3
100
DictionaryVariables
280
     0
  1
STANDARD
  0
DICTIONARYVAR
  5
6BB
102
{ACAD_REACTORS
330
1E3
102
}
330
1E3
100
DictionaryVariables
280
     0
  1
STANDARD
  0
DICTIONARYVAR
  5
1E4
102
{ACAD_REACTORS
330
1E3
102
}
330
1E3
100
DictionaryVariables
280
     0
  1
1
  0
DICTIONARYVAR
  5
4B36
102
{ACAD_REACTORS
330
1E3
102
}
330
1E3
100
DictionaryVariables
280
     0
  1
0
  0
DICTIONARYVAR
  5
6C0
102
{ACAD_REACTORS
330
1E3
102
}
330
1E3
100
DictionaryVariables
280
     0
  1
1
  0
DICTIONARYVAR
  5
6C1
102
{ACAD_REACTORS
330
1E3
102
}
330
1E3
100
DictionaryVariables
280
     0
  1
15
  0
DICTIONARYVAR
  5
6BF
102
{ACAD_REACTORS
330
1E3
102
}
330
1E3
100
DictionaryVariables
280
     0
  1
0
  0
DICTIONARYVAR
  5
6BD
102
{ACAD_REACTORS
330
1E3
102
}
330
1E3
100
DictionaryVariables
280
     0
  1
0
  0
DICTIONARYVAR
  5
4B35
102
{ACAD_REACTORS
330
1E3
102
}
330
1E3
100
DictionaryVariables
280
     0
  1
127
  0
DICTIONARYVAR
  5
4B37
102
{ACAD_REACTORS
330
1E3
102
}
330
1E3
100
DictionaryVariables
280
     0
  1
2
  0
DICTIONARY
  5
635
330
21
100
AcDbDictionary
280
     1
281
     1
  3
ADSK_XREC_LAYOUTTHUMBNAIL
360
636
  0
DICTIONARY
  5
319
330
318
100
AcDbDictionary
280
     1
281
     1
  3
BUMPTILE
360
31B
  3
DIFFUSETILE
360
31A
  3
OPACITYTILE
360
31E
  3
REFLECTIONTILE
360
31D
  3
REFRACTIONTILE
360
31F
  3
SPECULARTILE
360
31C
  0
DICTIONARY
  5
311
330
310
100
AcDbDictionary
280
     1
281
     1
  3
BUMPTILE
360
313
  3
DIFFUSETILE
360
312
  3
OPACITYTILE
360
316
  3
REFLECTIONTILE
360
315
  3
REFRACTIONTILE
360
317
  3
SPECULARTILE
360
314
  0
DICTIONARY
  5
321
330
320
100
AcDbDictionary
280
     1
281
     1
  3
BUMPTILE
360
323
  3
DIFFUSETILE
360
322
  3
OPACITYTILE
360
326
  3
REFLECTIONTILE
360
325
  3
REFRACTIONTILE
360
327
  3
SPECULARTILE
360
324
  0
DICTIONARY
  5
4B48
330
357
100
AcDbDictionary
280
     1
281
     1
  3
ACAD_XREC_ROUNDTRIP
360
4B49
  0
DICTIONARY
  5
685
330
343
100
AcDbDictionary
280
     1
281
     1
  3
ACAD_ROUNDTRIP_2008_TABLESTYLE_CELLSTYLEMAP
360
10988
  0
DICTIONARY
  5
1F0F
330
32E
100
AcDbDictionary
280
     1
281
     1
  3
ACAD_XREC_ROUNDTRIP
360
1F10
  0
DICTIONARY
  5
1F0D
330
32D
100
AcDbDictionary
280
     1
281
     1
  3
ACAD_XREC_ROUNDTRIP
360
1F0E
  0
DICTIONARY
  5
1F1B
330
334
100
AcDbDictionary
280
     1
281
     1
  3
ACAD_XREC_ROUNDTRIP
360
1F1C
  0
DICTIONARY
  5
1F23
330
338
100
AcDbDictionary
280
     1
281
     1
  3
ACAD_XREC_ROUNDTRIP
360
1F24
  0
DICTIONARY
  5
1F15
330
331
100
AcDbDictionary
280
     1
281
     1
  3
ACAD_XREC_ROUNDTRIP
360
1F16
  0
DICTIONARY
  5
1F19
330
333
100
AcDbDictionary
280
     1
281
     1
  3
ACAD_XREC_ROUNDTRIP
360
1F1A
  0
DICTIONARY
  5
1F33
330
340
100
AcDbDictionary
280
     1
281
     1
  3
ACAD_XREC_ROUNDTRIP
360
1F34
  0
DICTIONARY
  5
1F21
330
337
100
AcDbDictionary
280
     1
281
     1
  3
ACAD_XREC_ROUNDTRIP
360
1F22
  0
DICTIONARY
  5
1F05
330
329
100
AcDbDictionary
280
     1
281
     1
  3
ACAD_XREC_ROUNDTRIP
360
1F06
  0
DICTIONARY
  5
1F07
330
32A
100
AcDbDictionary
280
     1
281
     1
  3
ACAD_XREC_ROUNDTRIP
360
1F08
  0
DICTIONARY
  5
1F09
330
32B
100
AcDbDictionary
280
     1
281
     1
  3
ACAD_XREC_ROUNDTRIP
360
1F0A
  0
DICTIONARY
  5
1F0B
330
32C
100
AcDbDictionary
280
     1
281
     1
  3
ACAD_XREC_ROUNDTRIP
360
1F0C
  0
DICTIONARY
  5
1F13
330
330
100
AcDbDictionary
280
     1
281
     1
  3
ACAD_XREC_ROUNDTRIP
360
1F14
  0
DICTIONARY
  5
1F2F
330
33E
100
AcDbDictionary
280
     1
281
     1
  3
ACAD_XREC_ROUNDTRIP
360
1F30
  0
DICTIONARY
  5
1F1F
330
336
100
AcDbDictionary
280
     1
281
     1
  3
ACAD_XREC_ROUNDTRIP
360
1F20
  0
DICTIONARY
  5
1F31
330
33F
100
AcDbDictionary
280
     1
281
     1
  3
ACAD_XREC_ROUNDTRIP
360
1F32
  0
DICTIONARY
  5
1F17
330
332
100
AcDbDictionary
280
     1
281
     1
  3
ACAD_XREC_ROUNDTRIP
360
1F18
  0
DICTIONARY
  5
1F2D
330
33D
100
AcDbDictionary
280
     1
281
     1
  3
ACAD_XREC_ROUNDTRIP
360
1F2E
  0
DICTIONARY
  5
1F2B
330
33C
100
AcDbDictionary
280
     1
281
     1
  3
ACAD_XREC_ROUNDTRIP
360
1F2C
  0
DICTIONARY
  5
1F25
330
339
100
AcDbDictionary
280
     1
281
     1
  3
ACAD_XREC_ROUNDTRIP
360
1F26
  0
DICTIONARY
  5
1F27
330
33A
100
AcDbDictionary
280
     1
281
     1
  3
ACAD_XREC_ROUNDTRIP
360
1F28
  0
DICTIONARY
  5
1F1D
330
335
100
AcDbDictionary
280
     1
281
     1
  3
ACAD_XREC_ROUNDTRIP
360
1F1E
  0
DICTIONARY
  5
1F11
330
32F
100
AcDbDictionary
280
     1
281
     1
  3
ACAD_XREC_ROUNDTRIP
360
1F12
  0
DICTIONARY
  5
1F29
330
33B
100
AcDbDictionary
280
     1
281
     1
  3
ACAD_XREC_ROUNDTRIP
360
1F2A
  0
XRECORD
  5
636
102
{ACAD_REACTORS
330
635
102
}
330
635
100
AcDbXrecord
280
     1
310
28000000C400000000010000010008000000000000C40000000000000000000000010000000000000000000000000000FFFFFF000000000000000000000000000000000000000000000000000000000000000000330000006600000099000000CC000000FF00000000330000333300006633000099330000CC330000FF3300
310
0000660000336600006666000099660000CC660000FF66000000990000339900006699000099990000CC990000FF99000000CC000033CC000066CC000099CC0000CCCC0000FFCC000000FF000033FF000066FF000099FF0000CCFF0000FFFF000000003300330033006600330099003300CC003300FF003300003333003333
310
33006633330099333300CC333300FF33330000663300336633006666330099663300CC663300FF66330000993300339933006699330099993300CC993300FF99330000CC330033CC330066CC330099CC3300CCCC3300FFCC330000FF330033FF330066FF330099FF3300CCFF3300FFFF330000006600330066006600660099
310
006600CC006600FF00660000336600333366006633660099336600CC336600FF33660000666600336666006666660099666600CC666600FF66660000996600339966006699660099996600CC996600FF99660000CC660033CC660066CC660099CC6600CCCC6600FFCC660000FF660033FF660066FF660099FF6600CCFF6600
310
FFFF660000009900330099006600990099009900CC009900FF00990000339900333399006633990099339900CC339900FF33990000669900336699006666990099669900CC669900FF66990000999900339999006699990099999900CC999900FF99990000CC990033CC990066CC990099CC9900CCCC9900FFCC990000FF99
310
0033FF990066FF990099FF9900CCFF9900FFFF99000000CC003300CC006600CC009900CC00CC00CC00FF00CC000033CC003333CC006633CC009933CC00CC33CC00FF33CC000066CC003366CC006666CC009966CC00CC66CC00FF66CC000099CC003399CC006699CC009999CC00CC99CC00FF99CC0000CCCC0033CCCC0066CC
310
CC0099CCCC00CCCCCC00FFCCCC0000FFCC0033FFCC0066FFCC0099FFCC00CCFFCC00FFFFCC000000FF003300FF006600FF009900FF00CC00FF00FF00FF000033FF003333FF006633FF009933FF00CC33FF00FF33FF000066FF003366FF006666FF009966FF00CC66FF00FF66FF000099FF003399FF006699FF009999FF00CC
310
99FF00FF99FF0000CCFF0033CCFF0066CCFF0099CCFF00CCCCFF00FFCCFF0000FFFF0033FFFF0066FFFF0099FFFF00CCFFFF00FFFFFF00000000000D0D0D001A1A1A00282828003535350043434300505050005D5D5D006B6B6B00787878008686860093939300A1A1A100AEAEAE00BBBBBB00C9C9C900D6D6D600E4E4E400
310
F1F1F100FFFFFF0000000000000000000000000000000000000000000000000000000000000000000000000000000000E2E2E2E2E2E2E2E2E2E2E2E2E2E2E2E2E2E2E2E2E2E2E2E2E2E2E2E2E2E2E2E2E2E2E2E2E2E2E2E2E2E2E2E2E2E2E2E2E2E2E2E2E2E2E2E2E2E2E2E2E2E2E2E2E2E2E2E2E2E2E2E2E2E2E2E2E2E2E2
310
E2E2E2E2E2E2E2E2E2E2E2E2E2E2E2E2E2E2E2E2E2E2E2E2E2E2E2E2E2E2E2E2E2E2E2E2E2E2E2E2E2E2E2E2E2E2E2E2E2E2E2E2E2E2E2E2E2E2E2E2E2E2E2E2E2E2E2E2E2E2E2E2E2E2E2E2E2E2E2E2E2E2E2E2E2E2E2E2E2E2E2E2E2E2E2E2E2E2E2E2E2E2E2E2E2E2E2E2E2E2E2E2E2E2E2E2E2E2E2E2F5F5F5F5F5F5F5
310
F5F5F5F5F5F5F5F5F5F5F5F5F5F5F5F5F5F5F5F5F5F5F5F5F5F5F5F5F5F5F5F5F5F5F5F5F5F5F5F5F5F5F5F5F5F5F5F5F5F5F5F5F5F5F5F5F5F5F5F5F5F5F5F5F5F5F5F5F5F5F5F5F5F5F5F5F5F5F5F5F5F5F5F5F5F5F5F5F5F5F5F5F5F5F5F5F5F5F5F5F5F5F5F5F5F5F5F5F5F5F5F5F5F5F5F5F5F5F5F5F5F5F5F5F5F5F5
310
F5F5F5F5F5F5F5F5F5F5F5F5F5F5F5F5F5F5F5F5F5F5F5F5F5F5F5F5F5F5F5F5F5F5F5F5F5F5F5F5F5F5F5F5F5F5F5F5F5F5F5F5F5F5F5F5E2E2E2E2E2E2F5F5F5F5F5F5F5F5F5F5F5F5F5F5F5F5F5F5F5F5F5F5F5F5F5F5F5F5F5F5F5F5F5F5F5F5F5F5F5F5F5F5F5F5F5F5F5F5F5F5F5F5F5F5F5F5F5F5F5F5F5F5F5F5F5
310
F5F5F5F5F5F5F5F5F5F5F5F5F5F5F5F5F5F5F5F5F5F5F5F5F5F5F5F5F5F5F5F5F5F5F5F5F5F5F5F5F5F5F5F5F5F5F5F5F5F5F5F5F5F5F5F5F5F5F5F5F5F5F5F5F5F5F5F5F5F5F5F5F5F5F5F5F5F5F5F5F5F5F5F5F5F5F5F5F5F5F5F5F5F5F5F5F5F5F5F5F5F5F5F5F5F5F5F5F5F5F5F5F5F5F5F5F5F5F5F5F5F5F5F5F5E2E2
310
E2E2E2E2F5E2E2E2E2E2E2E2E2E2E2E2E2E2E2E2E2E2E2E2E2E2E2E2E2E2E2E2E2E2E2E2E2E2E2E2E2E2E2E2E2E2E2E2E2E2E2E2E2E2E2E2E2E2E2E2E2E2E2E2E2E2E2E2E2E2E2E2E2E2E2E2E2E2E2E2E2E2E2E2E2E2E2E2E2E2E2E2E2E2E2E2E2E2E2E2E2E2E2E2E2E2E2E2E2E2E2E2E2E2E2E2E2E2E2E2E2E2E2E2E2E2E2
310
E2E2E2E2E2E2E2E2E2E2E2E2E2E2E2E2E2E2E2E2E2E2E2E2E2E2E2E2E2E2E2E2E2E2E2E2E2E2E2E2E2E2E2E2E2E2E2E2E2E2E2E2E2E2E2E2E2E2E2E2E2E2E2E2E2E2F5E2E2E2E2E2E2F5E2E2E2E2E2E2E2E2E2E2E2E2E2E2E2E2E2E2E2E2E2E2E2E2E2E2E2E2E2E2E2E2E2E2E2E2E2E2E2E2E2E2E2E2E2E2E2E2E2E2E2E2E2
310
E2E2E2E2E2E2E2E2E2E2E2E2E2E2E2E2E2E2E2E2E2E2E2E2E2E2E2E2E2E2E2E2E2E2E2E2E2E2E2E2E2E2E2E2E2E2E2E2E2E2E2E2E2E2E2E2E2E2E2E2E2E2E2E2E2E2E2E2E2E2E2E2E2E2E2E2E2E2E2E2E2E2E2E2E2E2E2E2E2E2E2E2E2E2E2E2E2E2E2E2E2E2E2E2E2E2E2E2E2E2E2E2E2E2E2E2E2E2E2E2E2E2E2E2E2E2E2
310
E2E2E2E2E2E2E2E2F5E2E2E2E2E2E2F5E2E2E2E2E2E2E2E2E2E2E2E2E2E2E2E2E2E2E2E2E2E2E2E2E2E2E2E2E2E2E2E2E2E2E2E2E2E2E2E2E2E2E2E2E2E2E2E2E2E2E2E2E2E2E2E2E2E2E2E2E2E2E2E2E2E2E2E2E2E2E2E2E2E2E2E2E2E2E2E2E2E2E2E2E2E2E2E2E2E2E2E2E2E2E2E2E2E2E2E2E2E2E2E2E2E2E2E2E2E2E2
310
E2E2E2E2E2E2E2E2E2E2E2E2E2E2E2E2E2E2E2E2E2E2E2E2E2E2E2E2E2E2E2E2E2E2E2E2E2E2E2E2E2E2E2E2E2E2E2E2E2E2E2E2E2E2E2E2E2E2E2E2E2E2E2E2E2E2E2E2E2E2E2E2E2E2E2E2E2F5E2E2E2E2E2E2F5E2E2E2E2E2E2E2E2E2E2E2E2E2E2E2E2E2E2E2E2E2E2E2E2E2E2E2E2E2E2E2E2E2E2E2E2E2E2E2E2E2E2
310
E2E2E2E2E2E2E2E2E2E2E2E2E2E2E2E2E2E2E2E2E2E2E2E2E2E2E2E2E2E2E2E2E2E2E2E2E2E2E2E2E2E2E2E2E2E2E2E2E2E2E2E2E2E2E2E2E2E2E2E2E2E2E2E2E2E2E2E2E2E2E2E2E2E2E2E2E2E2E2E2E2E2E2E2E2E2E2E2E2E2E2E2E2E2E2E2E2E2E2E2E2E2E2E2E2E2E2E2E2E2E2E2E2E2E2E2E2E2E2E2E2E2E2E2E2E2E2
310
E2E2E2E2E2E2E2E2E2E2E2E2E2E2E2E2E2E2E2F5E2E2E2E2E2E2F5E2E2E2E2E2E2E2E2E2E2E2E2E2E2E2E2E2E2E2E2E2E2E2E2E2E2E2E2E2E2E2E2E2E2E2E2E2E2E2E2E2E2E2E2E2E2E2E2E2E2E2E2E2E2E2E2E2E2E2E2E2E2E2E2E2E2E2E2E2E2E2E2E2E2E2E2E2E2E2E2E2E2E2E2E2E2E2E2E2E2E2E2E2E2E2E2E2E2E2E2
310
E2E2E2E2E2E2E2E2E2E2E2E2E2E2E2E2E2E2E2E2E2E2E2E2E2E2E2E2E2E2E2E2E2E2E2E2E2E2E2E2E2E2E2E2E2E2E2E2E2E2E2E2E2E2E2E2E2E2E2E2E2E2E2E2E2E2E2E2E2E2E2E2E2E2E2E2E2E2E2E2E2E2E2E2E2E2E2E2F5E2E2E2E2E2E2F5E2E2E2E2E2E2E2E2E2E2E2E2E2E2E2E2E2E2E2E2E2E2E2E2E2E2E2E2E2E2E2
310
E2F5F5F5F5F5F5F5F5F5F5F5F5F5F5F5F5F5F5F5F5F5F5F5F5F5F5F5F5F5F5F5F5F5F5F5F5F5F5F5F5E2E2E2E2E2E2E2E2E2E2E2E2E2E2E2E2E2E2E2E2E2E2E2E2E2E2E2E2E2E2E2E2E2E2E2E2E2E2E2E2E2E2E2E2E2E2E2E2E2E2E2E2E2E2E2E2E2E2E2E2E2E2E2E2E2E2E2E2E2E2E2E2E2E2E2E2E2E2E2E2E2E2E2E2E2E2
310
E2E2E2E2E2E2E2E2E2E2E2E2E2E2E2E2E2E2E2E2E2E2E2E2E2E2E2E2E2E2F5E2E2E2E2E2E2F5E2E2E2E2E2E2E2E2E2E2E2E2E2E2E2E2E2E2E2E2E2E2E2E2E2E2E2E2E2E2E2E2F5F5F5F5F5F5F5F5F5F5F5F5F5F5F5F5F5F5F5F5F5F5F5F5F5F5F5F5F5F5F5F5F5F5F5F5F5F5F5F5E2E2E2E2E2E2E2E2E2E2E2E2E2E2E2E2E2
310
E2E2E2E2E2E2E2E2E2E2E2E2E2E2E2E2E2E2E2E2E2E2E2E2E2E2E2E2E2E2E2E2E2E2E2E2E2E2E2E2E2E2E2E2E2E2E2E2E2E2E2E2E2E2E2E2E2E2E2E2E2E2E2E2E2E2E2E2E2E2E2E2E2E2E2E2E2E2E2E2E2E2E2E2E2E2E2E2E2E2E2E2E2E2E2E2E2E2E2F5E2E2E2E2E2E2F5E2E2E2E2E2E2E2E2E2E2E2E2E2E2E2E2E2E2E2E2
310
E2E2E2E2E2E2E2E2E2E2E2E2F5F5F5F5F5F5F5F5F5F5F5F5F5F5F5F5F5F5F5F5F5F5F5F5F5F5F5F5F5F5F5F5F5F5F5F5F5F5F5F5E2E2E2E2E2E2E2E2E2E2E2E2E2E2E2E2E2E2E2E2E2E2E2E2E2E2E2E2E2E2E2E2E2E2E2E2E2E2E2E2E2E2F5E2E2E2E2E2E2E2E2E2E2E2E2E2E2E2E2E2E2E2E2E2E2E2E2E2E2E2E2E2E2E2E2
310
E2E2E2E2E2E2E2E2E2E2E2E2E2E2E2E2E2E2E2E2E2E2E2E2E2E2E2F5E2E2E2E2E2E2E2E2E2E2E2E2E2F5E2E2E2E2E2E2F5E2E2E2E2E2E2E2E2E2E2E2E2E2E2E2E2E2E2E2E2E2E2E2E2E2E2E2E2E2E2E2E2F5F5F5F5F5F5F5F5F5F5F5F5F5F5F5F5F5F5F5F5F5F5F5F5F5F5F5F5F5F5F5F5F5F5F5F5F5F5F5F5E2E2E2E2E2E2
310
E2E2E2E2E2E2E2E2E2E2E2E2E2E2E2E2E2E2E2E2E2E2E2E2E2E2E2E2E2E2E2E2E2E2E2E2F5F5E2E2E2E2E2E2E2E2E2E2E2E2E2E2E2E2E2E2E2E2E2E2E2E2E2E2E2E2E2E2E2E2E2E2E2E2E2E2E2E2E2E2E2E2E2E2E2E2E2E2E2E2E2E2E2E2E2E2F5F5E2E2E2E2E2E2E2E2E2E2E2E2F5E2E2E2E2E2E2F5E2E2E2E2E2E2E2E2E2
310
E2E2E2E2E2E2E2E2E2E2E2E2E2E2E2E2E2E2E2E2E2E2E2F5F5F5F5F5F5F5F5F5F5F5F5F5F5F5F5F5F5F5F5F5F5F5F5F5F5F5F5F5F5F5F5F5F5F5F5F5F5F5F5F5F5F5F5F5F5F5F5F5F5F5F5F5F5F5F5F5F5F5F5F5F5F5F5F5F5E2E2E2E2E2E2E2E2E2F5F5F5F5E2E2F5C3F5F5F5F5E2E2E2E2E2E2E2E2E2E2E2E2E2E2E2E2E2
310
E2E2E2E2E2E2E2E2E2E2E2E2E2E2E2E2E2E2E2E2E2E2E2E2E2E2F5F5F5F5F5F5F5F5F5F5E2F5E2F5F5F5F5F5F5F5F5F5F5F5E2E2F5E2E2E2E2E2E2F5E2E2E2E2E2E2E2E2E2E2E2E2E2E2E2E2E2E2E2E2E2E2E2E2E2E2E2E2E2E2E2E2F5F5F5F5F5F5F5F5F5F5F5F5F5F5F5F5F5F5F5F5F5F5F5F5F5F5F5F5F5F5F5F5F5F5F5
310
F5F5F5F5F5F5F5F5F5F5F5F5F5F5F5F5F5F5F5F5F5F5F5F5F5F5F5F5F5F5F5E2E2E2E2E2E2E2E2E2F5C3C3C3F5E2F5C3C3F5F5F5E2E2E2E2E2E2E2E2E2E2E2E2E2E2E2E2E2E2E2E2E2E2E2E2E2E2E2E2E2E2E2E2E2E2E2E2E2E2E2E2E2E2E2F5E2E2C3E2E20FE2C3F5F5F5E2F5F5F5F5F5F5F5F5F5F5F5E2E2F5E2E2E2E2E2
310
E2F5E2E2E2E2E2E2E2E2E2E2E2E2E2E2E2E2E2E2E2E2E2E2E2E2E2E2E2E2E2E2E2E2F5F5F5F5F5F5F5F5F5F5F5F5F5F5F5F5F5F5F5F5F5F5F5F5F5F5F5F5F5F5F5F5F5F5F5F5F5F5F5F5F5F5F5F5F5F5F5F5F5F5F5F5F5F5F5F5F5F5F5F5F5F5F5F5F5F5E2E2E2E2E2E2E2E2E2F5E2E2F5F5F50FE2F5F5E2F5E2E2E2E2E2E2
310
E2E2E2E2E2E2E2E2E2E2E2E2E2E2E2E2E2E2E2E2E2E2E2E2E2E2E2E2E2E2E2E2E2E2E2E2E2F5E2F5F5E2E20FE2C3C3F50FE2E2C3E2E20FE2F5F5E2F5F5E2E2F5E2E2E2E2E2E2F5E2E2E2E2E2E2E2E2E2E2E2E2E2E2E2E2E2E2E2E2E2E2E2E2E2E2E2E2E2E2E2E2E2E2E2E2E2E2E2E2E2E2E2E2E2E2E2E2E2E2E2E2E2E2E2E2
310
E2E2E2E2E2E2E2E2E2E2E2E2E2E2E2E2E2E2E2E2E2E2E2E2E2E2E2E2E2E2E2E2E2E2E2E2E2E2E2E2E2E2E2E2E2E2E2E2E2E2E2F5C3C3C3C3F5C3C3C3C3C3F5E2E2E2E2E2E2E2E2E2E2E2E2E2E2E2E2E2E2E2E2E2E2E2E2E2E2E2E2E2E2E2E2E2E2E2E2E2E2E2E2E2E2E2F5C3C3C3C3C30FC3C3C3F50FC3C3C3C3C30FC3C3C3
310
C3F5F5E2E2F5E2E2E2E2E2E2F5E2E2E2E2E2E2E2E2E2E2E2F5F5F5F5F5E2E2E2E2E2E2E2E2E2E2E2E2E2E2E2E2F5F5F5F5F5F5F5F5F5F5F5F5F5F5F5F5F5F5F5F5F5F5F5F5F5F5F5F5F5F5F5F5F5F5F5F5F5F5F5F5F5F5F5F5F5F5F5F5F5F5F5F5F5F5F5F5F5F5F5F5F5F5F5E2E2E2E2E2E2E2E2E2E2E2E2F5C3C3C3C3C3C3
310
C3C3C3C3F5E2E2E2E2E2E2E2E2E2E2E2E2E2E2E2E2E2E2E2E2E2E2E2E2E2E2E2E2E2E2E2E2E2E2E2E2E2E2E2E2E2E2E2F5C3C3C3C3C30FC3C3C3C30FC3C3C3C3C30FC3C3C3C3F5F5E2E2F5E2E2E2E2E2E2F5E2E2E2E2E2E2E2E2E2E2E2F5F5F5F5F5E2E2E2E2E2E2E2E2E2E2E2E2E2E2E2E2F5F5F5F5F5F5F5F5F5F5F5F5F5
310
F5F5F5F5F5F5F5F5F5F5F5F5F5F5F5F5F5F5F5F5F5F5F5F5F5F5F5F5F5F5F5F5F5F5F5F5F5F5F5F5F5F5F5F5F5F5F5F5F5F5E2E2E2E2E2E2E2E2E2E2E2E2F5E2E2F5E2E20FE2F5F5E2F5E2E2E2E2E2E2E2E2E2E2E2E2E2E2E2E2E2E2E2E2E2E2E2E2E2E2E2E2E2E2E2E2E2E2E2E2E2E2E2E2E2E2E2F5E2F5F5E2E20FE2C3C3
310
E20FE2E2C3E2E20FE2F5F5E2F5F5E2E2F5E2E2E2E2E2E2F5E2E2E2E2E2E2E2E2E2E2E2F5F5F5F5F5E2E2E2E2E2E2E2E2E2E2E2E2E2E2E2E2F5F5F5F5F5F5F5F5F5F5F5F5F5F5F5F5F5F5F5F5F5F5F5F5F5F5F5F5F5F5F5F5F5F5F5F5F5F5F5F5F5F5F5F5F5F5F5F5F5F5F5F5F5F5F5F5F5F5F5F5F5F5F5E2E2E2E2E2E2E2E2
310
E2E2E2E2F5C3C3C3C3C3C3C3C3C3C3F5E2E2E2E2E2E2E2E2E2E2E2E2E2E2E2E2E2E2E2E2E2E2E2E2E2E2E2E2E2E2E2E2E2E2E2E2E2E2E2E2E2E2E2F5C3C3C3C3C30FC3C3C3C30FC3C3C3C3C30FC3C3C3C3F5F5E2E2F5E2E2E2E2E2E2F5E2E2E2E2E2E2E2E2E2E2E2E2F5F5F5F5E2E2E2E2E2E2E2E2E2E2E2E2E2E2E2E2F5F5
310
F5F5F5F5F5F5F5F5F5F5F5F5F5F5F5F5F5F5F5F5F5F5F5F5F5F5F5F5F5F5F5F5F5F5F5F5F5F5F5F5F5F5F5F5F5F5F5F5F5F5F5F5F5F5F5F5F5F5F5F5F5F5F5F5F5F5F5E2E2E2E2E2E2F5C3C3C3C3C3C3C3C3C3C3F5E2E2E2E2E2E2E2E2E2E2E2E2E2E2E2E2E2E2E2E2E2E2E2E2E2E2E2E2E2E2E2E2E2E2E2E2E2E2E2E2E2E2
310
E2F5C3C3C3C3C30FC3C3C3C30FC3C3C3C3C30FC3C3C3C3F5F5E2E2F5E2E2E2E2E2E2F5E2E2E2E2E2E2E2E2E2E2E2E2E2E2E2E2E2E2E2E2E2E2E2E2E2E2E2E2E2E2E2E2F5F5F5F5F5F5F5F5F5F5F5F5F5F5F5F5F5F5F5F5F5F5F5F5F5F5F5F5F5F5F5F5F5F5F5F5F5F5F5F5F5F5F5F5F5F5F5F5F5F5F5F5F5F5F5F5F5F5F5F5
310
F5F5F5F5F5F5F5F5F5E2E2E2E2E2E2F5E2E2F5E2E20FE2F5F5E2F5E2E2E2E2E2E2E2E2E2E2E2E2E2E2E2E2E2E2E2E2F5F5F5F5F5F5F5F5F5F5F5F5F5F5F5E2E2E2E2E2E2E2F5F5E2F5F5E2E20FE2C3C3E20FE2E2C3E2E20FE2F5F5E2F5F5E2E2F5E2E2E2E2E2E2F5E2E2E2E2E2E2E2E2E2E2E2E2E2E2E2E2E2E2E2E2E2E2E2
310
E2E2E2E2E2E2E2E2E2F5F5F5F5F5F5F5F5F5F5F5F5F5F5F5F5F5F5F5F5F5F5F5F5F5F5F5F5F5F5F5F5F5F5F5F5F5F5F5F5F5F5F5F5F5F5F5F5F5F5F5F5F5F5F5F5F5F5F5F5F5F5F5F5F5F5F5F5F5E2E2E2E2E2E2F5C3C3C3C3C3C3C3C3C3C3F5E2E2E2E2E2E2E2E2E2E2E2E2E2E2E2E2E2E2E2E2F5F5F5F5F5F5F5F5F5F5F5
310
F5F5F5F5E2E2E2E2E2E2E2F5F5C3C3C3C3C30FC3C3C3C30FC3C3C3C3C30FC3C3C3C3F5F5E2E2F5E2E2E2E2E2E2F5E2E2E2E2E2E2E2E2E2E2E2E2E2E2E2E2E2E2E2E2E2E2E2E2E2E2E2E2E2E2E2E2F5F5F5F5F5F5F5F5F5F5F5F5F5F5F5F5F5F5F5F5F5F5F5F5F5F5F5F5F5F5F5F5F5F5F5F5F5F5F5F5F5F5F5F5F5F5F5F5F5
310
F5F5F5F5F5F5F5F5F5F5F5F5F5F5F5F5F5F5F5F5E2E2E2E2E2E2F5C3C3C3C3C3C3C3C3C3C3F5E2E2E2E2E2E2E2E2E2E2E2E2E2E2E2E2E2E2E2E2F5F5F5F5F5F5F5F5F5F5F5F5F5F5F5E2E2E2E2E2E2E2F5F5C3C3C3C3C30FC3C3C3C30FC3C3C3C3C30FC3C3C3C3F5F5E2E2F5E2E2E2E2E2E2F5E2E2E2E2E2E2E2E2E2E2E2E2
310
E2E2E2E2E2E2E2E2E2E2E2E2E2E2E2E2E2E2E2E2E2E2E2E2E2E2E2E2E2E2E2E2E2E2E2E2E2E2E2E2E2E2E2E2E2E2E2E2E2E2E2E2E2E2E2E2E2E2E2E2E2E2E2E2E2E2E2E2E2E2E2E2E2E2E2E2E2E2E2E2E2E2E2E2E2E2E2E2E2E2E2E2E2E2E2F5E2E2F5E2E20FE2F5F5E2F5E2E2E2E2E2E2E2E2E2E2E2E2E2E2E2E2E2E2E2E2
310
F5F5F5F5F5F5F5F5F5F5F5F5F5F5F5E2E2E2E2E2E2E2F5F5E2F5F5E2E20FE2C3C3E20FE2E2C3E2E20FE2F5F5E2F5F5E2E2F5E2E2E2E2E2E2F5E2E2E2E2E2E2E2E2E2E2E2E2E2E2E2E2E2E2E2E2E2E2E2E2E2E2E2E2E2E2E2E2E2E2E2E2E2E2E2E2E2E2E2E2E2E2E2E2E2E2E2E2E2E2E2E2E2E2E2E2E2E2E2E2E2E2E2E2E2E2
310
E2E2E2E2E2E2E2E2E2E2E2E2E2E2E2E2E2E2E2E2E2E2E2E2E2E2E2E2E2E2E2E2E2E2E2E2E2F5E2E2C3E2E20FE2E2C3E2F5E2E2E2E2E2E2E2E2E2E2E2E2E2E2E2E2E2E2E2E2F5F5F5F5F5F5F5F5F5F5F5F5F5F5F5F5F5E2E2E2E2E2F5F5E2E2C3E2E20FE2C3C3E20FE2E2C3E2E20FE2E2C3E2F5F5E2E2F5E2E2E2E2E2E2F5E2
310
E2E2E2E2E2E2E2E2E2E2E2E2E2E2E2E2E2E2E2E2E2E2E2E2E2E2E2E2E2E2E2E2E2E2E2E2E2E2E2E2E2E2E2E2E2E2E2E2E2E2E2E2E2E2E2E2E2E2E2E2E2E2E2E2E2E2E2E2E2E2E2E2E2E2E2E2E2E2E2E2E2E2E2E2E2E2E2E2E2E2E2E2E2E2E2E2E2E2E2E2E2E2E2E2E2E2F5C3C3C3C3C3C3C3C3C3C3F5E2E2E2E2E2E2E2E2E2
310
E2E2E2E2E2E2E2E2E2E2E2F5F5F5F5F5F5F5F5F5F5F5F5F5F5F5F5F5E2E2E2E2E2F5F5C3C3C3C3C30FC3C3C3C30FC3C3C3C3C30FC3C3C3C3F5F5E2E2F5E2E2E2E2E2E2F5E2E2E2E2E2E2E2E2E2E2E2E2E2E2E2E2E2E2E2E2E2E2E2E2E2E2E2E2E2E2E2E2E2E2E2E2E2E2E2E2E2E2E2E2E2E2E2E2E2E2E2E2E2E2E2E2E2E2E2
310
E2E2E2E2E2E2E2E2E2E2E2E2E2E2E2E2E2E2E2E2E2E2E2E2E2E2E2E2E2E2E2E2E2E2E2E2E2E2E2E2E2E2E2E2E2E2E2E2F5E2E2F5E2E20FE2F5F5E2F5E2E2E2E2E2E2E2E2E2E2E2E2E2E2E2F5F5F5F5E2F5F5F5F5F5F5F5F5F5F5F5F5F5F5F5F5F5E2E2E2E2E2F5F5E2F5F5E2E20FE2C3C3E20FE2E2C3E2E20FE2F5F5E2F5F5
310
E2E2F5E2E2E2E2E2E2F5E2E2E2E2E2E2E2E2E2E2E2E2E2E2E2E2E2E2E2E2E2E2E2E2E2E2E2E2E2E2E2E2F5F5F5F5F5F5F5F5F5F5F5F5F5F5F5F5F5F5F5F5F5F5F5F5F5F5F5F5F5F5F5F5F5F5F5F5F5F5F5F5F5F5F5F5F5F5F5F5F5F5F5F5F5F5F5F5F5F5F5F5F5F5F5F5F5F5F5E2E2E2E2E2E2E2E2F5E2E2C3E2E20FE2E2C3
310
E2F5E2E2E2E2E2E2E2E2E2E2E2E2E2E2F5E2E2E2E2E2F5F5F5F5F5F5F5F5F5F5F5F5F5F5F5F5F5E2E2E2E2E2F5F5E2E2C3E2E20FE2C3C3E20FE2E2C3E2E20FE2E2C3E2F5F5E2E2F5E2E2E2E2E2E2F5E2E2E2E2E2E2E2E2E2E2E2E2E2E2E2E2E2E2E2E2E2E2E2E2E2E2E2E2E2E2E2E2F5F5F5F5F5F5F5F5F5F5F5F5F5F5F5F5
310
F5F5F5F5F5F5F5F5F5F5F5F5F5F5F5F5F5F5F5F5F5F5F5F5F5F5F5F5F5F5F5F5F5F5F5F5F5F5F5F5F5F5F5F5F5F5F5F5F5F5F5E2E2E2E2E2E2E2E2F5C3C3C3C3C3C3C3C3C3C3F5E2E2E2E2E2E2E2E2E2E2E2E2E2F5E2E2E2E2E2E2E2E2E2E2E2E2E2E2E2E2E2E2E2E2E2E2E2E2E2E2E2E2F5F5C3C3C3C3C30FC3C3C3C30FC3
310
C3C3C3C30FC3C3C3C3F5F5E2E2F5E2E2E2E2E2E2F5E2E2E20F0F0F0F0F0F0F0F0F0F0F0F0F0F0F0F0F0F0F0F0F0F0F0F0FE2E2E2E2F5F5F5F5F5F5F5F5F5F5F5F5F5F5F5F5F5F5F5F5F5F5F5F5F5F5F5F5F5F5F5F5F5F5F5F5F5F5F5F5F5F5F5F5F5F5F5F5F5F5F5F5F5F5F5F5F5F5F5F5F5F5F5F5F5F5F5E2E2E2E2E2E2E2
310
E2F5E2E2F5E2E20FE2F5F5E2F5E2E2E2E2E2E2E2E2E2E2E2E2E2F5E2E2E2E2E2E2E2E2E2E2E2E2E2E2E2E2E2E2E2E2E2E2E2E2E2E2E2E2F5F5E2F5F5E2E20FE2C3C3E20FE2E2C3E2E20FE2F5F5E2F5F5E2E2F5E2E2E2E2E2E2F5E2E2E2E2E2E2E2E2E2E2E2E2E2E2E2E2E2E2E2E2E2E2E2E2E2E2E2E2E2E2E2E2F5F5F5F5F5
310
F5F5F5F5F5F5F5F5F5F5F5F5F5F5F5F5F5F5F5F5F5F5F5F5F5F5F5F5F5F5F5F5F5F5F5F5F5F5F5F5F5F5F5F5F5F5F5F5F5F5F5F5F5F5F5F5F5F5F5F5F5F5E2E2E2E2E2E2E2E2F5E2E2C3E2E20FE2E2C3E2F5E2E2E2E2E2E2E2E2E2E2E2E2F5E2E2E2E2E2E2E2E2E2E2E2E2E2E2E2E2E2E2E2E2E2E2E2E2E2E2E2E2E2F5F5E2
310
E2C3E2E20FE2C3C3E20FE2E2C3E2E20FE2E2C3E2F5F5E2E2F5E2E2E2E2E2E2F5E2E2E2E2E2E2E2E2E2E2E2E2E2E2E2E2E2E2E2E2E2E2E2E2E2E2E2E2E2E2E2E2E2E2E2E2E2E2E2E2E2E2E2E2E2E2E2E2E2E2E2E2E2E2E2E2E2E2E2E2E2E2E2E2E2E2E2E2E2E2E2E2E2E2E2E2E2E2E2E2E2E2E2E2E2E2E2E2E2E2E2E2E2E2E2
310
E2E2E2E2E2E2E2E2E2E2E2E2F5C3C3C3C3C3C3C3C3C3C3F5E2E2E2E2E2E2E2E2E2E2E2F5E2E2E2E2E2E2E2E2E2E2E2E2E2E2E2E2E2E2E2E2E2E2E2E2E2E2E2E2E2E2F5F5C3C3C3C3C30FC3C3C3C30FC3C3C3C3C30FC3C3C3C3F5F5E2E2F5E2E2E2E2E2E2F5E2E2E2E2E2E2E2E2E2E2E2E2E2E2E2E2E2E2E2E2E2E2E2E2E2E2
310
E2E2E2E2E2E2E2E2E2E2E2E2E2E2E2E2E2E2E2E2E2E2E2E2E2E2E2E2E2E2E2E2E2E2E2E2E2E2E2E2E2E2E2E2E2E2E2E2E2E2E2E2E2E2E2E2E2E2E2E2E2E2E2E2E2E2E2E2E2E2E2E2E2E2E2E2E2E2E2E2E2F5E2E2F5E2E20FE2F5F5E2F5E2E2E2E2E2E2E2E2E2E2F5E2E2E2E2E2E2E2E2E2E2E2E2E2E2E2E2E2E2E2E2E2E2E2
310
E2E2E2E2E2E2E2E2F5F5E2F5F5E2E20FE2C3C3E20FE2E2C3E2E20FE2F5F5E2F5F5E2E2F5E2E2E2E2E2E2F5E2E2E2E2E2E2E2E2E2E2E2E2E2E2E2E2E2E2E2E2E2E2E2E2E2E2E2E2E2E2E2E2E2E2E2E2E2E2E2E2E2E2E2E2E2E2E2E2E2E2E2E2E2E2E2E2E2E2E2E2E2E2E2E2E2E2E2E2E2E2E2E2E2E2E2E2E2E2E2E2E2E2E2E2
310
E2E2E2E2E2E2E2E2E2E2E2E2E2E2E2E2E2E2E2E2E2E2E2F5E2E2C3E2E20FE2E2C3E2F5E2E2E2E2E2E2E2E2E2F5E2E2E2E2E2E2E2E2E2E2E2E2E2E2E2E2E2E2E2E2E2E2E2E2E2E2E2E2E2E2E2E2F5F5E2E2C3E2E20FE2C3C3E20FE2E2C3E2E20FE2E2C3E2F5F5E2E2F5E2E2E2E2E2E2F5E2E2E2E2E2E2E2E2E2E2E2E2E2E2E2
310
E2E2E2E2E2E2E2E2E2E2E2E2E2E2E2E2E2F5F5F5F5F5F5F5F5F5F5F5F5F5F5F5F5F5F5F5F5F5F5F5F5F5F5F5F5F5F5F5F5F5F5F5F5F5F5F5F5F5F5F5F5F5F5F5F5F5F5F5F5F5F5F5F5F5F5F5F5E2E2E2E2E2E2E2E2E2E2E2E2E2E2E2F5C3C3C3C3C3C3C3C3C3C3F5E2E2E2E2E2E2E2E2F5E2E2E2E2E2E2E2E2E2E2E2E2E2E2
310
E2E2E2E2E2E2E2E2E2E2E2E2E2E2E2E2E2E2E2F5F5C3C3C3C3C30FC3C3C3C30FC3C3C3C3C30FC3C3C3C3F5F5E2E2F5E2E2E2E2E2E2F5E2E2E2E2E2E2E2E2E2E2E2E2E2E2E2E2E2E2E2E2E2E2E2E2E2E2E2E2E2E2E2E2F5F5F5F5F5F5F5F5F5F5F5F5F5F5F5F5F5F5F5F5F5F5F5F5F5F5F5F5F5F5F5F5F5F5F5F5F5F5F5F5F5
310
F5F5F5F5F5F5F5F5F5F5F5F5F5F5F5F5F5F5F5E2E2E2E2E2E2E2E2E2E2E2E2E2E2E2F5E2E2F5E2E20FE2F5F5E2F5E2E2E2E2E2E2F5E2F5E2E2E2E2E2E2E2E2E2E2E2E2E2E2E2E2E2E2E2E2E2E2E2E2E2E2E2E2E2E2E2E2E2F5F5E2F5F5E2E20FE2C3C3E20FE2E2C3E2E20FE2F5F5E2F5F5E2E2F5E2E2E2E2E2E2F5E2E2E2C3
310
C3C3C3C3C3C3C3C3C3C3C3C3C3C3C3C3C3C3C3C3C3C3C3C3E2E2E2E2F5F5F5F5F5F5F5F5F5F5F5F5F5F5F5F5F5F5F5F5F5F5F5F5F5F5F5F5F5F5F5F5F5F5F5F5F5F5F5F5F5F5F5F5F5F5F5F5F5F5F5F5F5F5F5F5F5F5F5F5E2E2E2E2E2E2E2E2E2E2E2E2E2E2E2F5E2E2C3E2E20FE2E2C3E2F5E2E2E2E2E2E2F5F5E2E2E2E2
310
E2E2E2E2E2E2E2E2E2E2E2E2E2E2E2E2E2E2E2E2E2E2E2E2E2E2E2E2E2E2F5F5E2E2C3E2E20FE2C3C3E20FE2E2C3E2E20FE2E2C3E2F5F5E2E2F5E2E2E2E2E2E2F5E2E2E2C3C3C3C3C3C3C3C3C3C3C3C3C3C3C3C3C3C3C3C3C3C3C3C3C3E2E2E2E2F5F5F5F5F5F5F5F5F5F5F5F5F5F5F5F5F5F5F5F5F5F5F5F5F5F5F5F5F5F5
310
F5F5F5F5F5F5F5F5F5F5F5F5F5F5F5F5F5F5F5F5F5F5F5F5F5F5F5F5F5F5E2E2E2E2E2E2E2E2E2E2E2E2E2E2E2F5C3C3C3C3C3C3C3C3F5F5F5F5F5F5E2E2F5F5E2E2E2E2E2E2E2E2E2E2E2E2E2E2E2E2E2E2E2E2E2E2E2E2E2E2E2E2E2E2E2E2E2E2E2F5F5C3C3C3C3C30FC3C3C3C30FC3C3C3C3C30FC3C3C3C3F5F5E2E2F5
310
E2E2E2E2E2E2F5E2E2E2E2E2E2E2E2E2E2E2E2E2E2E2E2E2E2E2E2E2E2E2E2E2E2E2E2E2E2E2E2E2E2E2E2E2E2E2E2E2E2E2E2E2E2E2E2E2E2E2E2E2E2E2E2E2E2E2E2E2E2E2E2E2E2E2E2E2E2E2E2E2E2E2E2E2E2E2E2E2E2E2E2E2E2E2E2E2E2E2E2E2E2E2E2E2E2E2E2E2E2E2E2E2E2E2F5E2E2F5E2E20FF5F5F5F5F5F5
310
F5F5F5E2F5E2E2E2E2E2E2E2E2E2E2E2E2E2E2E2E2E2E2E2E2E2E2E2E2E2E2E2E2E2E2E2E2E2E2E2E2F5F5E2F5F5E2E20FE2C3C3E20FE2E2C3E2E20FE2F5F5E2F5F5E2E2F5E2E2E2E2E2E2F5E2E2E2E2E2E2E2E2E2E2E2E2E2E2E2E2E2E2E2E2E2E2E2E2E2E2E2E2E2E2E2E2E2E2E2E2E2E2E2E2E2E2E2E2E2E2E2E2E2E2E2
310
E2E2E2E2E2E2E2E2E2E2E2E2E2E2E2E2E2E2E2E2E2E2E2E2E2E2E2E2E2E2E2E2E2E2E2E2E2E2E2E2E2E2E2E2E2E2E2E2E2E2E2E2E2E2E2E2F5E2E2F5E2E2F5F5F5C3E2F5E2E2E2F5F5F5E2E2E2E2E2E2E2E2E2E2E2E2E2E2E2E2E2E2E2E2E2E2E2E2E2E2E2E2E2E2E2E2E2E2E2E2F5F5E2F5C3E2E20FE2C3C3E20FE2E2C3E2
310
E20FE2F5C3E2F5F5E2E2F5E2E2E2E2E2E2F5E2E2E2E2E2E2E2E2E2E2E2E2E2E2E2E2E2E2E2E2E2E2E2E2E2E2E2E2E2E2E2E2E2E2E2E2E2E2E2E2E2E2E2E2E2E2E2E2E2E2E2E2E2E2E2E2E2E2E2E2E2E2E2E2E2E2E2E2E2E2E2E2E2E2E2E2E2E2E2E2E2E2E2E2E2E2E2E2E2E2E2E2E2E2E2E2E2E2E2E2E2E2E2E2E2E2E2F5C3
310
C3C3C3F5F5F5C3C3C3F5E2E2E2E2F5F5F5E2E2E2E2E2E2E2E2E2E2E2E2E2E2E2E2E2E2E2E2E2E2E2E2E2E2E2E2E2E2E2E2E2E2E2F5F5C3C3C3C3C30FC3C3C3C30FC3C3C3C3C30FC3C3C3C3F5F5E2E2F5E2E2E2E2E2E2F5E2E2E2E2E2E2E2E2E2E2E2E2E2E2E2E2E2E2E2E2E2E2E2E2E2E2E2E2E2E2E2E2E2E2E2E2E2E2E2E2
310
E2E2E2E2E2E2E2E2E2E2E2E2E2E2E2E2E2E2E2E2E2E2E2E2E2E2E2E2E2E2E2E2E2E2E2E2E2E2E2E2E2E2E2E2E2E2E2E2E2E2E2E2E2E2E2E2E2E2E2E2E2E2E2E2E2E2E2F5E2E2F5E2F5F5E2F5F5E2F5E2E2E2E2E2F5F5F5E2E2E2E2E2E2E2E2E2E2E2E2E2E2E2E2E2E2E2E2E2E2E2E2E2E2E2E2E2E2E2E2E2E2F5F5E2F5F5E2
310
E20FE2C3C3E20FE2E2C3E2E20FE2F5F5E2F5F5E2E2F5E2E2E2E2E2E2F5E2E2E2E2E2E2E2E2E2E2E2E2E2E2E2E2E2E2E2E2E2E2E2E2E2E2E2E2E2E2E2E2F5F5F5F5F5F5F5F5F5F5F5F5F5F5F5F5F5F5F5F5F5F5F5F5F5F5F5F5F5F5F5F5F5F5F5F5F5F5F5F5F5F5F5F5F5F5F5F5F5F5F5F5F5F5F5F5F5F5F5F5F5F5F5F5F5E2
310
E2E2E2E2E2E2E2E2E2F5E2E2F5E2E20FE2F5C3E2F5E2E2E2E2E2E2F5F5E2E2E2E2E2E2E2E2E2E2E2E2E2E2E2E2E2E2E2E2E2E2E2E2E2E2E2E2E2E2E2E2E2E2F50FE2F5C3E2E20FE2C3C3E20FE2E2C3E2E20FE2F5C3E2F5F5E2E2F5E2E2E2E2E2E2F5E2E2E2E2F5E2F5E2E2E2E2E2E2E2F5F5F5E2E2E2E2E2E2E2F5F5F5E2E2
310
E2E2E2F5F5F5F5F5F5F5F5F5F5F5F5F5F5F5F5F5F5F5F5F5F5F5F5F5F5F5F5F5F5F5F5F5F5F5F5F5F5F5F5F5F5F5F5F5F5F5F5F5F5F5F5F5F5F5F5F5F5F5F5F5F5F5F5F5E2E2E2E2E2E2E2E2E2E2F5C3C3C3F5F5C3C3C3C3C3F5E2E2E2E2E2E2E2E2E2E2E2E2E2E2E2E2E2E2E2E2E2E2E2E2E2E2E2E2E2E2E2E2E2E2E2E2E2
310
E2E2E2E2E2F50FC3C3C3C3C30FC3C3C3C30FC3C3C3C3C30FC3C3C3C3F5F5E2E2F5E2E2E2E2E2E2F5E2E2E2C3F5F5F5C3C3C3C3C3C3C3F5F5F5C3C3C3C3C3C3C3F5F5F5C3E2E2E2E2F5F5F5F5F5F5F5F5F5F5F5F5F5F5F5F5F5F5F5F5F5F5F5F5F5F5F5F5F5F5F5F5F5F5F5F5F5F5F5F5F5F5F5F5F5F5F5F5F5F5F5F5F5F5F5
310
F5F5F5F5F5F5F5F5F5F5E2E2E2E2E2E2E2E2E2E2F5E2E2F5F5E20FE2E2F5E2F5E2E2E2E2E2E2E2F5E2E2E2E2E2E2E2E2E2E2E2E2E2E2E2E2E2E2E2E2E2E2E2E2E2E2E2E2E2E2E2E2E2E2F5F5E2E2F5E2E20FE2C3C3E20FE2E2C3E2E20FE2E2F5E2F5F5E2E2F5E2E2E2E2E2E2F5E2E2E2E2F5E2F5E2E2E2E2E2E2E2F5F5F5E2
310
E2E2E2E2E2E2F5F5F5E2E2E2E2E2F5F5F5F5F5F5F5F5F5F5F5F5F5F5F5F5F5F5F5F5F5F5F5F5F5F5F5F5F5F5F5F5F5F5F5F5F5F5F5F5F5F5F5F5F5F5F5F5F5F5F5F5F5F5F5F5F5F5F5F5F5F5F5F5F5E2E2E2E2E2E2E2E2E2E2F5E2E2F5F5E20FE2F5C3E2F5F5E2E2E2E2E2E2F5E2E2E2E2E2E2E2E2E2E2E2E2E2E2E2E2E2E2
310
E2E2E2E2E2E2E2E2E2E2E2E2E2E2E2E2F50FE2F5C3E2E20FE2C3C3E20FE2E2C3E2E20FE2F5C3E2F5F5E2E2F5E2E2E2E2E2E2F5E2E2E2E2E2E2E2E2E2E2E2E2E2E2E2E2E2E2E2E2E2E2E2E2E2E2E2E2E2E2E2E2E2E2E2E2E2E2E2E2E2E2E2E2E2E2E2E2E2E2E2E2E2E2E2E2E2E2E2E2E2E2E2E2E2E2E2E2E2E2E2E2E2E2E2E2
310
E2E2E2E2E2E2E2E2E2E2E2E2E2E2E2E2E2E2E2E2E2E2E2E2E2E2E2E2E2E2E2F5C3C3C3F5C3C3C3C3C3C3C3F5E2E2E2E2E2E2F5E2E2E2E2E2E2E2E2E2E2E2E2E2E2E2E2E2E2E2E2E2E2E2E2E2E2E2E2E2E2E2E2E2E2F50FC3C3C3C3C30FC3C3C3C30FC3C3C3C3C30FC3C3C3C3F5F5E2E2F5E2E2E2E2E2E2F5E2E2E2E2E2E2E2
310
E2E2E2E2E2E2E2E2E2E2E2E2E2E2E2E2E2E2E2E2E2E2E2E2E2E2E2E2E2E2E2E2E2E2E2E2E2E2E2E2E2E2E2E2E2E2E2E2E2E2E2E2E2E2E2E2E2E2E2E2E2E2E2E2E2E2E2E2E2E2E2E2E2E2E2E2E2E2E2E2E2E2E2E2E2E2E2E2E2E2E2E2E2E2E2E2E2E2E2E2F5E2E2F5E2E20FE2E2F5E20FF5E2E2E2E2E2F5F5E2E2E2E2E2E2E2
310
E2E2E2E2E2E2E2E2E2E2E2E2E2E2E2E2E2E2E2E2E2E2E2E2E2E2E2F5F5E2E2F5E2E20FE2C3C3E20FE2E2C3E2E20FE2E2F5E2F5F5E2E2F5E2E2E2E2E2E2F5E2E2E2E2E2E2E2E2E2E2E2E2E2E2E2E2E2E2E2E2E2E2E2E2E2E2E2E2E2E2E2E2E2E2E2E2E2E2E2E2E2E2E2E2E2E2E2E2E2E2E2E2E2E2E2E2E2E2E2E2E2E2E2E2E2
310
E2E2E2E2E2E2E2E2E2E2E2E2E2E2E2E2E2E2E2E2E2E2E2E2E2E2E2E2E2E2E2E2E2E2E2E2E2E2E2E2E2E2F5E2E2F5F5F50FE2F5C3E20FF5E2E2E2E2E2E2F5E2E2E2E2E2E2E2E2E2E2E2E2E2E2E2E2E2E2E2E2E2E2E2E2E2E2E2E2E2E2E2E2E2E2F50FE2F5C3E2E20FE2C3C3E20FE2E2C3E2E20FE2F5C3E2F5F5E2E2F5E2E2E2
310
E2E2E2F5E2E2E2E2E2E2E2E2E2E2E2E2E2E2E2E2E2E2E2E2E2E2E2E2E2E2E2E2E2E2E2E2E2E2E2E2E2E2E2E2E2E2E2E2E2E2E2E2E2E2E2E2E2E2E2E2E2E2E2E2E2E2E2E2E2E2E2E2E2E2E2E2E2E2E2E2E2E2E2E2E2E2E2E2E2E2E2E2E2E2E2E2E2E2E2E2E2E2E2E2E2E2E2E2E2E2E2F5C3C3C3F5F5F5C3C3C3C3C3F5E2E2E2
310
E2F5F5E2E2E2E2E2E2E2E2E2E2E2E2E2E2E2E2E2E2E2E2E2E2E2E2E2E2E2E2E2E2E2E2E2E2E2F50FC3C3C3C3C30FC3C3C3C30FC3C3C3C3C30FC3C3C3C3F5F5E2E2F5E2E2E2E2E2E2F5E2E2E2E2E2E2E2E2E2E2E2E2E2E2E2E2E2E2E2E2E2E2E2E2E2E2E2E2E2E2E2E2F5F5F5F5F5F5F5F5F5F5F5F5F5F5F5F5F5F5F5F5F5F5
310
F5F5F5F5F5F5F5F5F5F5F5F5E2E2E2E2E2E2E2E2E2E2E2E2E2E2E2E2E2E2E2E2E2E2E2E2E2E2E2E2E2E2E2E2E2E2E2E2E2E2E2E2E2F5E2E2F5E2F5F5E2E2F5E20FF5E2E2E2F5F5F5E2E2E2E2E2E2E2E2E2E2E2E2E2E2E2E2E2E2E2E2E2E2E2E2E2E2E2E2E2E2E2E2E2E2E2F5F5E2E2F5E2E20FE2C3C3E20FE2E2C3E2E20FE2
310
E2F5E2F5F5E2E2F5E2E2E2E2E2E2F5E2E2E2E2E2E2E2E2E2E2E2E2E2E2E2E2E2E2E2E2E2E2E2E2E2E2E2E2E2E2E2E2F5F5F5F5F5F5F5F5F5F5F5F5F5F5F5F5F5F5F5F5F5F5F5F5F5F5F5F5F5F5F5F5F5F5E2E2E2E2E2E2E2E2E2E2E2E2E2E2E2E2E2E2E2E2E2E2E2E2E2E2E2E2E2E2E2E2E2E2E2E2E2E2E2E2E2F5E2E2F5E2
310
E2F5F5F5C3E20FF5E2E2F5F5F5E2E2E2E2E2E2E2E2E2E2E2E2E2E2E2E2E2E2E2E2E2E2E2E2E2E2E2E2E2E2E2E2E2E2E2E2F50FE2F5C3E2E20FE2C3C3E20FE2E2C3E2E20FE2F5C3E2F5F5E2E2F5E2E2E2E2E2E2F5E2E2E2E2E2E2E2E2E2E2E2E2E2E2E2E2E2E2E2E2E2E2E2E2E2E2E2E2E2E2E2E2F5F5F5F5F5F5F5F5F5F5F5
310
F5F5F5F5F5F5F5F5F5F5F5F5F5F5F5F5F5F5F5F5F5F5F5E2E2E2E2E2E2E2E2E2E2E2E2E2E2E2E2E2E2E2E2E2E2E2E2E2E2E2E2E2E2E2E2E2E2E2E2E2E2E2E2E2F5C3C3C3C3C3C3C3F5F5F5F5F5F5F5F5F5E2E2E2E2E2E2E2E2E2E2E2E2E2E2E2E2E2E2E2E2E2E2E2E2E2E2E2E2E2E2E2E2E2E2E2E2F5F50FC3C3C3C3C30FC3
310
C3C3C30FC3C3C3C3C30FC3C3C3C3F5F5E2E2F5E2E2E2E2E2E2F5E2E2E2E2E2E2E2E2E2E2E2E2E2E2E2E2E2E2E2E2E2E2E2E2E2E2E2E2E2E2E2E2F5F5F5F5F5F5F5F5F5F5F5F5F5F5F5F5F5F5F5F5F5F5F5F5F5F5F5F5F5F5F5F5F5F5F5F5F5F5F5F5F5F5F5F5F5F5F5F5F5F5F5F5F5F5F5F5F5F5F5F5F5E2E2E2E2E2E2E2E2
310
E2E2E2E2E2E2F5E2E2F5E2E20FE2E2F5F5F5F5F5F5E2E2E2E2E2E2E2E2E2E2E2E2E2E2E2E2E2E2E2E2E2E2E2E2E2E2E2E2E2E2E2E2E2E2E2E2E2E2F5F50FE2E2F5E2E20FE2C3C3E20FE2E2C3E2E20FE2E2F5E2F5F5E2E2F5E2E2E2E2E2E2F5E2E2E2E2F5E2E2E2E2E2E2F5E2E2E2E2E2F5F5E2E2E2E2E2F5E2E2E2E2E2E2E2
310
F5F5F5F5F5F5F5F5F5F5F5F5F5F5F5F5F5F5F5F5F5F5F5F5F5F5F5F5F5F5F5F5F5F5F5F5F5F5F5F5F5F5F5F5F5F5F5F5F5F5F5F5F5F5F5F5F5F5F5F5F5E2E2E2E2E2E2E2E2E2E2E2E2E2E2F5E2E2F5E2E20FE2F5C3E20FF5E2E2E2E2E2E2E2E2E2E2E2E2E2E2E2E2E2E2E2E2E2E2E2E2E2E2E2E2E2E2E2E2E2E2E2E2E2E2E2
310
E2F5F50FE2F5C3E2E20FE2C3C3E20FE2E2C3E2E20FE2F5C3E2F5F5E2E2F5E2E2E2E2E2E2F5E2E2E2C3C3F5C3C3C3C3C3C3F5C3C3C3C3C3F5C3C3C3C3C3C3F5C3C3E2E2E2E2F5F5F5F5F5F5F5F5F5F5F5F5F5F5F5F5F5F5F5F5F5F5F5F5F5F5F5F5F5F5F5F5F5F5F5F5F5F5F5F5F5F5F5F5F5F5F5F5F5F5F5F5F5F5F5F5F5F5
310
F5F5F5E2E2E2E2E2E2E2E2E2E2E2E2E2E2F5C3C3C3C3C3C3C3C3C3C3C3F5E2E2E2E2E2E2E2E2E2E2E2E2E2E2E2E2E2E2E2E2E2E2E2E2E2E2E2E2E2E2E2E2E2E2E2E2E2E2E2E2F5C30FC3C3C3C3C30FC3C3C3C30FC3C3C3C3C30FC3C3C3C3F5F5E2E2F5E2E2E2E2E2E2F5E2E2E2E2E2F5E2E2E2E2E2E2F5E2E2E2E2E2F5E2E2
310
E2E2E2E2F5E2E2E2E2E2E2F5F5F5F5F5F5F5F5F5F5F5F5F5F5F5F5F5F5F5F5F5F5F5F5F5F5F5F5F5F5F5F5F5F5F5F5F5F5F5F5F5F5F5F5F5F5F5F5F5F5F5F5F5F5F5F5F5F5F5F5F5E2E2E2E2E2E2E2E2E2E2E2E2E2E2F5E2E2F5E2E20FE2E2F5E20FF5E2E2E2E2E2E2E2E2E2E2E2E2E2E2E2E2E2E2E2E2E2E2E2E2E2E2E2E2
310
E2E2E2E2E2E2E2E2E2E2E2E2F5F50FE2E2F5E2E20FE2C3C3E20FE2E2C3E2E20FE2E2F5E2F5F5E2E2F5E2E2E2E2E2E2F5E2E2E2E2E2E2E2E2E2E2E2E2E2E2E2E2E2E2E2E2E2E2E2E2E2E2E2E2E2E2E2E2E2E2E2E2E2E2E2E2E2E2E2E2E2E2E2E2E2E2E2E2E2E2E2E2E2E2E2E2E2E2E2E2E2E2E2E2E2E2E2E2E2E2E2E2E2E2E2
310
E2E2E2E2E2E2E2E2E2E2E2E2E2E2E2E2E2E2E2E2E2E2E2E2E2E2E2E2F5E2E2F5E2E20FE2F5C3E20FF5E2E2E2E2E2E2E2E2E2E2E2E2E2E2E2E2E2E2E2E2E2E2E2E2E2E2E2E2E2E2E2E2E2E2E2E2E2E2E2E2F5F50FE2F5C3E2E20FE2C3C3E20FE2E2C3E2E20FE2F5C3E2F5F5E2E2F5E2E2E2E2E2E2F5E2E2E2E2E2E2E2E2E2E2
310
E2E2E2E2E2E2E2E2E2E2E2E2E2E2E2E2E2E2E2E2E2E2E2E2E2E2E2E2E2E2E2E2E2E2E2E2E2E2E2E2E2E2E2E2E2E2E2E2E2E2E2E2E2E2E2E2E2E2E2E2E2E2E2E2E2E2E2E2E2E2E2E2E2E2E2E2E2E2E2E2E2E2E2E2E2E2E2E2E2E2E2E2E2E2E2E2E2F5C3C3C3C3C3C3C3C3C3C3C3F5E2E2E2E2E2E2E2E2E2E2E2E2E2E2E2E2E2
310
E2E2E2E2E2E2E2E2E2E2E2E2E2E2E2E2E2E2E2E2E2E2E2F5C30FC3C3C3C3C30FC3C3C3C30FC3C3C3C3C30FC3C3C3C3F5F5E2E2F5E2E2E2E2E2E2F5E2E2E2E2E2E2E2E2E2E2E2E2E2E2E2E2E2E2E2E2E2E2E2E2E2E2E2E2E2E2E2E2E2E2E2E2E2E2E2E2E2E2E2E2E2E2E2E2E2E2E2E2E2E2E2E2E2E2E2E2E2E2E2E2E2E2E2E2
310
E2E2E2E2E2E2E2E2E2E2E2E2E2E2E2E2E2E2E2E2E2E2E2E2E2E2E2E2E2E2E2E2E2E2E2E2E2E2E2F5E2E2F5E2E20FE2E2F5E20FF5E2E2E2E2E2E2E2E2E2E2E2E2E2E2E2E2E2E2E2E2E2E2E2E2E2E2E2E2E2E2E2E2E2E2E2E2E2E2E2E2F5F50FE2E2F5E2E20FE2C3C3E20FE2E2C3E2E20FE2E2F5E2F5F5E2E2F5E2E2E2E2E2E2
310
F5E2E2E2E2E2E2E2E2E2E2E2E2E2E2E2E2E2E2E2E2E2E2E2E2E2E2E2E2E2E2E2E2E2E2E2E2E2E2E2E2E2E2E2E2E2E2E2E2E2E2E2E2E2E2E2E2E2E2E2E2E2E2E2E2E2E2E2E2E2E2E2E2E2E2E2E2E2E2E2E2E2E2E2E2E2E2E2E2E2E2E2E2E2E2E2E2E2E2E2E2E2E2E2E2E2E2E2F5E2E2F5E2E20FE2F5C3E20FF5E2E2E2E2E2E2
310
E2E2E2E2E2E2E2E2E2E2E2E2E2E2E2E2E2E2E2E2E2E2E2E2E2E2E2E2E2E2E2E2E2F5F5F50FE2F5C3E2E20FE2C3C3E20FE2E2C3E2E20FE2F5C3E2F5F5E2E2F5E2E2E2E2E2E2F5E2E2E2E2E2E2E2E2E2E2E2E2E2E2E2E2E2E2E2E2E2E2E2E2E2E2E2E2E2E2E2E2F5F5F5F5F5F5F5F5F5F5F5F5F5F5F5F5F5F5F5F5F5F5F5F5F5
310
F5F5F5F5F5F5F5F5F5F5F5F5F5F5F5E2E2E2E2E2E2E2E2E2E2E2E2E2E2E2E2E2E2E2E2E2E2E2E2E2E2E2E2E2E2E2E2E2E2E2F5C3C3C3C3C3C3C3C3C3C3C3F5E2E2E2E2E2E2E2E2E2E2E2E2E2E2E2E2E2E2E2E2E2E2E2E2E2E2E2E2E2E2E2E2E2E2E2E2E2E2E2F5C3C30FC3C3C3C3C30FC3C3C3C30FC3C3C3C3C30FC3C3C3C3
310
F5F5E2E2F5E2E2E2E2E2E2F5E2E2E2E2E2E2E2E2E2E2E2E2E2E2E2E2E2E2E2E2E2E2E2E2E2E2E2E2E2E2E2E2F5F5F5F5F5F5F5F5F5F5F5F5F5F5F5F5F5F5F5F5F5F5F5F5F5F5F5F5F5F5F5F5F5F5F5F5F5F5F5F5E2E2E2E2E2E2E2E2E2E2E2E2E2E2E2E2E2E2E2E2E2E2E2E2E2E2E2E2E2E2E2E2E2E2E2F5E2E2F5E2E20FE2
310
E2F5E20FF5E2E2E2E2E2E2E2E2E2E2E2E2E2E2E2E2E2E2E2E2E2E2E2E2E2E2E2E2E2E2E2E2E2E2E2E2E2E2E2F5F5E20FE2E2F5E2E20FE2C3C3E20FE2E2C3E2E20FE2E2F5E2F5F5E2E2F5E2E2E2E2E2E2F5E2E2E228282828282828282828282828282828282828282828282828E2E2E2E2F5F5F5F5F5F5F5F5F5F5F5F5F5F5
310
F5F5F5F5F5F5F5F5F5F5F5F5F5F5F5F5F5F5F5F5F5F5F5F5F5F5E2E2E2E2E2E2E2E2E2E2E2E2E2E2E2E2E2E2E2E2E2E2E2E2E2E2E2E2E2E2E2E2E2E2E2F5E2E2F5E2E20FE2F5C3E20FF5E2E2E2E2E2E2E2E2E2E2E2E2E2E2E2E2E2E2E2E2E2E2E2E2E2E2E2E2E2E2E2E2E2E2E2E2E2E2E2F5F5E20FE2F5C3E2E20FE2C3C3E2
310
0FE2E2C3E2E20FE2F5C3E2F5F5E2E2F5E2E2E2E2E2E2F5E2E2E2E2E2E2E2E2E2E2E2E2E2E2E2E2E2E2E2E2E2E2E2E2E2E2E2E2E2E2E2E2F5F5F5F5F5F5F5F5F5F5F5F5F5F5F5F5F5F5F5F5F5F5F5F5F5F5F5F5F5F5F5F5F5F5F5F5F5F5F5F5E2E2E2E2E2E2E2E2E2E2E2E2E2E2E2E2E2E2E2E2E2E2E2E2E2E2E2E2E2E2E2E2
310
E2E2E2F5C3C3C3C3C3C3C3C3C3C3C3F5E2E2E2E2E2E2E2E2E2E2E2E2E2E2E2E2E2E2E2E2E2E2E2E2E2E2E2E2E2E2E2E2E2E2E2E2E2E2E2F5C3C30FC3C3C3C3C30FC3C3C3C30FC3C3C3C3C30FC3C3C3C3F5F5E2E2F5E2E2E2E2E2E2F5E2E2E2E2E2E2E2E2E2E2E2E2E2E2E2E2E2E2E2E2E2E2E2E2E2E2E2E2E2E2E2E2E2E2E2
310
E2E2E2E2E2E2E2E2E2E2E2E2E2E2E2E2E2E2E2E2E2E2E2E2E2E2E2E2E2E2E2E2E2E2E2E2E2E2E2E2E2E2E2E2E2E2E2E2E2E2E2E2E2E2E2E2E2E2E2E2E2E2E2E2E2E2E2E2E2E2E2E2F5E2E2F5E2E20FE2E2F5E20FF5E2E2E2E2E2E2E2E2E2E2E2E2E2E2E2E2E2E2E2E2E2E2E2E2E2E2E2E2E2E2E2E2E2E2E2E2E2E2E2F5E2E2
310
0FE2E2F5E2E20FE2C3C3E20FE2E2C3E2E20FE2E2F5E2F5F5E2E2F5E2E2E2E2E2E2F5E2E2E2E2E2E2E2E2E2E2E2E2E2E2E2E2E2E2E2E2E2E2E2E2E2E2E2E2E2E2E2E2E2E2E2E2E2E2E2E2E2E2E2E2E2E2E2E2E2E2E2E2E2E2E2E2E2E2E2E2E2E2E2E2E2E2E2E2E2E2E2E2E2E2E2E2E2E2E2E2E2E2E2E2E2E2E2E2E2E2E2E2E2
310
E2E2E2E2E2E2E2E2E2E2E2E2E2E2F5E2E2F5E2E20FE2F5C3E20FF5E2E2E2E2E2E2E2E2E2E2E2E2E2E2E2E2E2E2E2E2E2E2E2E2E2E2E2E2E2E2E2E2E2E2E2E2E2E2E2F5E2E20FE2F5C3E2E20FE2C3C3E20FE2E2C3E2E20FE2F5C3E2F5F5E2E2F5E2E2E2E2E2E2F5E2E2E2E2E2E2E2E2E2E2E2E2E2E2E2E2E2E2E2E2E2E2E2E2
310
E2E2E2E2E2E2E2E2E2E2E2E2E2E2E2E2E2E2E2E2E2E2E2E2E2E2E2E2E2E2E2E2E2E2E2E2E2E2E2E2E2E2E2E2E2E2E2E2E2E2E2E2E2E2E2E2E2E2E2E2E2E2E2E2E2E2E2E2E2E2E2E2E2E2E2E2E2E2E2E2E2E2E2F5C3C3C3C3C3C3C3C3C3C3C3F5E2E2E2E2E2E2E2E2E2E2E2E2E2E2E2E2E2E2E2E2E2E2E2E2E2E2E2E2E2E2E2
310
E2E2E2E2E2E2E2F5C3C3C30FC3C3C3C3C30FC3C3C3C30FC3C3C3C3C30FC3C3C3C3F5F5E2E2F5E2E2E2E2E2E2F5E2E2E2E2E2E2E2E2E2E2E2E2E2E2E2E2E2E2E2E2E2E2E2E2E2E2E2E2E2E2E2E2E2E2E2E2E2E2E2E2E2E2E2E2E2E2E2E2E2E2E2E2E2E2E2E2E2E2E2E2E2E2E2E2E2E2E2E2E2E2E2E2E2E2E2E2E2E2E2E2E2E2
310
E2E2E2E2E2E2E2E2E2E2E2E2E2E2E2E2E2E2E2E2E2E2E2E2E2F5E2E2F5E2E20FE2E2F5E20FF5E2E2E2E2E2E2E2E2E2E2E2E2E2E2E2E2E2E2E2E2E2E2E2E2E2E2E2E2E2E2E2E2E2E2E2E2E2E2F5C3E2E20FE2E2F5E2E20FE2C3C3E20FE2E2C3E2E20FE2E2F5E2F5F5E2E2F5E2E2E2E2E2E2F5E2E2E2E2E2E2E2E2E2E2E2E2E2
310
E2E2E2E2E2E2E2E2E2E2E2E2E2E2E2E2E2E2E2E2E2E2E2E2E2E2E2E2E2E2E2E2E2E2E2E2E2E2E2E2E2E2E2F5F5F5F5F5F5F5F5F5F5F5F5F5F5F5F5F5F5F5F5F5F5E2E2E2E2E2E2E2E2E2E2E2E2E2E2E2E2E2E2E2E2E2E2E2E2E2E2E2E2E2F5E2E2F5E2E20FE2F5C3E20FF5E2E2E2E2E2E2E2E2E2E2E2E2E2E2E2E2E2E2E2E2
310
E2E2E2E2E2E2E2E2E2E2E2E2E2E2E2E2E2E2F5C3E2E20FE2F5C3E2E20FE2C3C3E20FE2E2C3E2E20FE2F5C3E2F5F5E2E2F5E2E2E2E2E2E2F5E2E2E2E2E2E2E2E2E2E2E2E2E2E2E2E2E2E2E2E2E2E2E2E2E2E2E2E2E2E2E2E2E2E2E2E2E2E2E2E2E2E2E2E2E2E2E2E2E2E2E2E2E2E2E2E2F5F5F5F5F5F5F5F5F5F5F5F5F5F5F5
310
F5F5F5F5F5F5F5E2E2E2E2E2E2E2E2E2E2E2E2E2E2E2E2E2E2E2E2E2E2E2E2E2E2E2E2E2F5C3C3C3C3C3C3C3C3C3C3C3F5E2E2E2E2E2E2E2E2E2E2E2E2E2E2E2E2E2E2E2E2E2E2E2E2E2E2E2E2E2E2E2E2E2E2E2E2E2E2F5C3C3C30FC3C3C3C3C30FC3C3C3C30FC3C3C3C3C30FC3C3C3C3F5F5E2E2F5E2E2E2E2E2E2F5E2E2
310
E2E2E2E2E2E2E2E2E2E2E2E2E2E2E2E2E2E2E2E2E2E2E2E2E2E2E2E2E2E2E2E2E2E2E2E2E2E2E2E2E2E2E2E2E2E2E2E2E2E2E2E2E2E2F5F5F5F5F5F5F5F5F5F5F5F5F5F5F5F5F5F5F5F5F5F5E2E2E2E2E2E2E2E2E2E2E2E2E2E2E2E2E2E2E2E2E2E2E2E2E2E2E2E2E2F5E2E2F5E2E20FE2E2F5E20FF5E2E2E2E2E2E2E2E2E2
310
E2E2E2E2E2E2E2E2E2E2E2E2E2E2E2E2E2E2E2E2E2E2E2E2E2E2E2E2F5F5C3E2E20FE2E2F5E2E20FE2C3C3E20FE2E2C3E2E20FE2E2F5E2F5F5E2E2F5E2E2E2E2E2E2F5E2E2E2E2E2E2E2E2E2E2E2E2E2E2E2E2E2E2E2E2E2E2E2E2E2E2E2E2E2E2E2E2E2E2E2E2E2E2E2E2E2E2E2E2E2E2E2E2E2E2E2E2E2E2E2E2F5F5F5F5
310
F5F5F5F5F5F5F5F5F5F5F5F5F5F5F5F5F5F5E2E2E2E2E2E2E2E2E2E2E2E2E2E2E2E2E2E2E2E2E2E2E2E2E2E2E2E2E2F5E2E2F5E2E20FE2F5C3E20FF5E2E2E2E2E2E2E2E2E2E2E2E2E2E2E2E2E2E2E2E2E2E2E2E2E2E2E2E2E2E2E2E2E2E2E2E2E2F5F5C3E2E20FE2F5C3E2E20FE2C3C3E20FE2E2C3E2E20FE2F5C3E2F5F5E2
310
E2F5E2E2E2E2E2E2F5E2E2E2E2E2E2E2E2E2E2E2E2E2E2E2E2E2E2E2E2E2E2E2E2E2E2E2E2E2E2E2E2E2E2E2E2E2E2E2E2E2E2E2E2E2E2E2E2E2E2E2E2E2E2E2E2F5F5F5F5F5F5F5F5F5F5F5F5F5F5F5F5F5F5F5F5F5F5E2E2E2E2E2E2E2E2E2E2E2E2E2E2E2E2E2E2E2E2E2E2E2E2E2E2E2E2E2F5C3C3C3C3C3C3C3C3C3C3
310
C3F5E2E2E2E2E2E2E2E2E2E2E2E2E2E2E2E2E2E2E2E2E2E2E2E2E2E2E2E2E2E2E2E2E2E2E2E2E2F5C3C3C3C30FC3C3C3C3C30FC3C3C3C30FC3C3C3C3C30FC3C3C3C3F5F5E2E2F5E2E2E2E2E2E2F5E2E2E2E2E2E2E2E2E2E2E2E2E2E2E2E2E2E2E2E2E2E2E2E2E2E2E2E2E2E2E2E2E2E2E2E2E2E2E2E2E2E2E2E2E2E2E2E2E2
310
E2E2E2E2E2E2E2E2E2E2E2E2E2E2E2E2E2E2E2E2E2E2E2E2E2E2E2E2E2E2E2E2E2E2E2E2E2E2E2E2E2E2E2E2E2E2E2E2E2E2E2E2E2E2E2E2E2E2F5E2E2F5E2E20FE2E2F5E20FF5E2E2E2E2E2E2E2E2E2E2E2E2E2E2E2E2E2E2E2E2E2E2E2E2E2E2E2E2E2E2E2E2E2E2E2E2E2F5F5C3E2E20FE2E2F5E2E20FE2C3C3E20FE2E2
310
C3E2E20FE2E2F5E2F5F5E2E2F5E2E2E2E2E2E2F5E2E2E2E2E2E2E2E2E2E2E2E2E2E2E2E2E2E2E2E2E2E2E2E2E2E2E2E2E2E2E2E2E2E2E2E2E2E2E2E2E2E2E2E2E2E2E2E2E2E2E2E2E2E2E2E2E2E2E2E2E2E2E2E2E2E2E2E2E2E2E2E2E2E2E2E2E2E2E2E2E2E2E2E2E2E2E2E2E2E2E2E2E2E2E2E2E2E2E2E2E2E2E2E2E2E2E2
310
F5E2E2F5E2E20FE2F5C3E20FF5E2E2E2E2E2E2E2E2E2E2E2E2E2E2E2E2E2E2E2E2E2E2E2E2E2E2E2E2E2E2E2E2E2E2E2E2E2F5F5C3E2E20FE2F5C3E2E20FE2C3C3E20FE2E2C3E2E20FE2F5C3E2F5F5E2E2F5E2E2E2E2E2E2F5E2E2E2E2E2E2E2E2E2E2E2E2E2E2E2E2E2E2E2E2E2E2E2E2E2E2E2E2E2E2E2E2E2E2E2E2E2E2
310
E2E2E2E2E2E2E2E2E2E2E2E2E2E2E2E2E2E2E2E2E2E2E2E2E2E2E2E2E2E2E2E2E2E2E2E2E2E2E2E2E2E2E2E2E2E2E2E2E2E2E2E2E2E2E2E2E2E2E2E2E2E2E2E2E2E2E2E2E2F5C3C3C3C3C3C3C3C3C3C3C3F5E2E2E2E2E2E2E2E2E2E2E2E2E2E2E2E2E2E2E2E2E2E2E2E2E2E2E2E2E2E2E2E2E2E2E2E2E2F5C3C3C3C30FC3C3
310
C3C3C30FC3C3C3C30FC3C3C3C3C30FC3C3C3C3F5F5E2E2F5E2E2E2E2E2E2F5E2E2E2E2E2E2E2E2E2E2E2E2E2E2E2E2E2E2E2E2E2E2E2E2E2E2E2E2E2E2E2E2E2E2E2E2E2E2E2E2E2E2E2E2E2E2E2E2E2E2E2E2E2E2E2E2E2E2E2E2E2E2E2E2E2E2E2E2E2E2E2E2E2E2E2E2E2E2E2E2E2E2E2E2E2E2E2E2E2E2E2E2E2E2E2E2
310
E2E2E2E2E2E2E2E2E2E2E2F5E2E2F5E2E20FE2E2F5E20FF5E2E2E2E2E2E2E2E2E2E2E2E2E2E2E2E2E2E2E2E2E2E2E2E2E2E2E2E2E2E2E2E2E2E2E2E2F5E2E2C3E2E20FE2E2F5E2E20FE2C3C3E20FE2E2C3E2E20FE2E2F5E2F5F5E2E2F5E2E2E2E2E2E2F5E2E2E2E2E2E2E2E2E2E2E2E2E2E2E2E2E2E2E2E2E2E2E2E2E2E2E2
310
E2E2E2E2E2E2E2E2E2E2E2E2E2E2E2E2E2E2E2E2E2E2E2E2E2E2E2E2E2E2E2E2E2E2E2E2E2E2E2E2E2E2E2E2E2E2E2E2E2E2E2E2E2E2E2E2E2E2E2E2E2E2E2E2E2E2E2E2E2E2E2E2E2E2E2E2E2E2E2E2F5E2E2F5E2E20FE2F5F5E20FF5E2E2E2E2E2E2E2E2E2E2E2E2E2E2E2E2E2E2E2E2E2E2E2E2E2E2E2E2E2E2E2E2E2E2
310
E2E2F5F5F5C3E2E20FE2F5F5E2E20FE2C3C3E20FE2E2C3E2E20FE2F5F5E2F5F5E2E2F5E2E2E2E2E2E2F5E2E2E2E2E2E2E2E2E2E2E2E2E2E2E2E2E2E2E2E2E2E2E2E2E2E2E2E2E2E2E2E2E2E2E2E2E2E2E2E2E2E2E2E2E2E2E2E2E2E2E2E2E2E2E2E2E2E2E2E2E2E2E2E2E2E2E2E2E2E2E2E2E2E2E2E2E2E2E2E2E2E2E2E2E2
310
E2E2E2E2E2E2E2E2E2E2E2E2E2E2E2E2E2E2E2E2E2E2F5C3C3C3C3C3C3C3C3C3C3C3C3F5E2E2E2E2E2E2E2E2E2E2E2E2E2E2E2E2E2E2E2E2E2E2E2E2E2E2E2E2E2E2E2E2E2E2E2F5C3C3C3C3C30FC3C3C3C3C30FC3C3C3C30FC3C3C3C3C30FC3C3C3C3F5F5E2E2F5E2E2E2E2E2E2F5E2E2E2E2E2E2E2E2E2E2E2E2E2E2E2E2
310
E2E2E2E2E2E2E2E2E2E2E2E2E2E2E2E2E2E2E2E2E2E2E2E2E2E2E2E2E2E2E2E2E2E2E2E2E2E2E2E2E2E2E2E2E2E2E2E2E2E2E2E2E2E2E2E2E2E2E2E2E2E2E2E2E2E2E2E2E2E2E2E2E2E2E2E2E2E2E2E2E2E2E2E2E2E2E2E2E2E2E2F5E2E2F5E2E20FE2E2F5E20FF5F5E2E2E2E2E2E2E2E2E2E2E2E2E2E2E2E2E2E2E2E2E2E2
310
E2E2E2E2E2E2E2E2E2E2E2E2E2F5E2E2C3E2E20FE2E2F5E2E20FE2C3C3E20FE2E2C3E2E20FE2E2F5E2F5F5E2E2F5E2E2E2E2E2E2F5E2E2E2E2E2E2E2E2E2E2E2E2E2E2E2E2E2E2E2E2E2E2E2E2E2E2E2E2E2E2E2E2E2E2E2E2E2E2E2E2E2E2E2E2E2E2E2E2E2E2E2E2E2E2E2E2E2E2E2E2E2E2E2E2E2E2E2E2E2E2E2E2E2E2
310
E2E2E2E2E2E2E2E2E2E2E2E2E2E2E2E2E2E2E2E2E2E2E2E2E2E2E2E2E2E2E2E2E2F5E2E2F5E2E20FE2F5F5E20FF5F5E2E2E2E2E2E2E2E2E2E2E2E2E2E2E2E2E2E2E2E2E2E2E2E2E2E2E2E2E2E2E2E2E2E2F5F5E2E2C3E2E20FE2F5F5E2E20FE2C3C3E20FE2E2C3E2E20FE2F5F5E2F5F5E2E2F5E2E2E2E2E2E2F5E2E2E2E2E2
310
E2E2E2E2E2E2E2E2E2E2E2E2E2E2E2E2E2E2E2E2E2E2E2E2E2E2E2E2E2E2E2E2E2E2E2E2E2E2E2E2E2E2E2E2E2E2E2E2E2E2E2E2E2E2E2E2E2E2E2E2E2E2E2E2E2E2E2E2E2E2E2E2E2E2E2E2E2E2E2E2E2E2E2E2E2E2E2E2E2E2E2E2E2E2E2E2E2E2E2E2E2E2F5C3C3C3C3C3C3C3C3C3C3C3C3F5E2E2E2E2E2E2E2E2E2E2E2
310
E2E2E2E2E2E2E2E2E2E2E2E2E2E2E2E2E2E2E2E2E2E2E2F5F5C3C3C3C3C30FC3C3C3C3C30FC3C3C3C30FC3C3C3C3C30FC3C3C3C3F5F5E2E2F5E2E2E2E2E2E2F5E2E2E2E2E2E2E2E2E2E2E2E2E2E2E2E2E2E2E2E2E2E2E2E2E2E2E2E2E2E2E2E2E2E2E2E2E2E2E2E2E2E2E2E2E2E2E2E2E2E2E2E2E2E2E2E2E2E2E2E2E2E2E2
310
E2E2E2E2E2E2E2E2E2E2E2E2E2E2E2E2E2E2E2E2E2E2E2E2E2E2E2E2E2E2E2E2E2E2E2E2E2E2E2E2E2E2E2E2F5E2E2C3E2E20FE2E2C3E20FE2F5E2E2E2E2E2E2E2E2E2E2E2E2E2E2E2E2E2E2E2E2E2E2E2E2E2E2E2E2E2E2E2E2E2E2F5F5E2E2C3E2E20FE2E2C3E2E20FE2C3C3E20FE2E2C3E2E20FE2E2C3E2F5F5E2E2F5E2
310
E2E2E2E2E2F5E2E2E2E2E2E2E2E2E2E2E2E2E2E2E2E2E2E2E2E2E2E2E2E2E2E2E2E2E2E2E2E2E2E2E2E2E2E2E2E2E2E2E2E2E2E2E2E2E2E2E2E2E2E2E2E2E2E2E2E2E2E2E2E2E2E2E2E2E2E2E2E2E2E2E2E2E2E2E2E2E2E2E2E2E2E2E2E2E2E2E2E2E2E2E2E2E2E2E2E2E2E2E2E2E2E2E2F5E2E2F5E2E20FE2F5F5E20FF5F5
310
E2E2E2E2E2E2E2E2E2E2E2E2E2E2E2E2E2E2E2E2E2E2E2E2E2E2E2E2E2E2E2E2E2E2F528E2E2C3E2E20FE2F5F5E2E20FE2C3C3E20FE2E2C3E2E20FE2F5F5E2F5F5E2E2F5E2E2E2E2E2E2F5E2E2E2E2E2E2E2E2E2E2E2E2E2E2E2E2E2E2E2E2E2E2E2E2E2E2E2E2E2E2E2E2E2E2E2E2E2E2E2E2E2E2E2E2E2E2E2E2E2E2E2E2
310
E2E2E2E2E2E2E2E2E2E2E2E2E2E2E2E2E2E2E2E2E2E2E2E2E2E2E2E2E2E2E2E2E2E2E2E2E2E2E2E2E2E2E2E2E2E2E2E2E2E2E2E2E2E2E2F5C3C3C3C3C30FC3C3C3C3C3C3F5E2E2E2E2E2E2E2E2E2E2E2E2E2E2E2E2E2E2E2E2E2E2E2E2E2E2E2E2E2E2E2E2E2F5F528C3C3C3C3C30FC3C3C3C3C30FC3C3C3C30FC3C3C3C3C3
310
0FC3C3C3C3F5F5E2E2F5E2E2E2E2E2E2F5E2E2E2E2E2E2E2E2E2E2E2E2E2E2E2E2E2E2E2E2E2E2E2E2E2E2E2E2E2E2E2E2E2E2E2E2E2E2E2E2E2E2E2E2E2E2E2E2E2E2E2E2E2E2E2E2E2E2E2E2E2E2E2E2E2E2E2E2E2E2E2E2E2E2E2E2E2E2E2E2E2E2E2E2E2E2E2E2E2E2E2E2E2E2E2E2E2E2E2E2E2E2E2E2E2E2E2F5E2E2
310
C3E2E20FE2E2C3E20FE2F5E2E2E2E2E2E2E2E2E2E2E2E2E2E2E2E2E2E2E2E2E2E2E2E2E2E2E2E2E2E2E2E2E2F5E228E2E2C3E2E20FE2E2C3E2E20FE2C3C3E20FE2E2C3E2E20FE2E2C3E2F5F5E2E2F5E2E2E2E2E2E2F5E2E2E2E2E2E2E2E2E2E2E2E2E2E2E2E2E2E2E2E2E2E2E2E2E2E2E2E2E2E2E2E2E2E2E2E2E2E2E2E2E2
310
E2E2E2E2E2E2E2E2E2E2E2E2E2E2E2E2E2E2E2E2E2E2E2E2E2E2E2E2E2E2E2E2E2E2E2E2E2E2E2E2E2E2E2E2E2E2E2E2E2E2E2E2E2E2E2E2E2E2E2E2E2E2E2E2E2E2F5E2E2F5E2E20FE2F5F5E20FF5F5E2E2E2E2E2E2E2E2E2E2E2E2E2E2E2E2E2E2E2E2E2E2E2E2E2E2E2E2E2E2E2E2E2F5C3C3E2E2C3E2E20FE2F5F5E2E2
310
0FE2C3C3E20FE2E2C3E2E20FE2F5F5E2F5F5E2E2F5E2E2E2E2E2E2F5E2E2E2E2E2E2E2E2E2E2E2E2E2E2E2E2E2E2E2E2E2E2E2E2E2E2E2E2E2E2E2E2E2E2E2E2E2E2E2E2E2E2E2E2E2E2E2E2E2E2E2E2E2E2E2E2E2E2E2E2E2E2E2E2E2E2E2E2E2E2E2E2E2E2E2E2E2E2E2E2E2E2E2E2E2E2E2E2E2E2E2E2E2E2E2E2E2E2E2
310
E2E2E2E2E2E2E2E2F5C3C3C3C3C30FC3C3C3C3C3C3F5E2E2E2E2E2E2E2E2E2E2E2E2E2E2E2E2E2E2E2E2E2E2E2E2E2E2E2E2E2E2E2E2F5F5E2C3C3C3C3C3C30FC3C3C3C3C30FC3C3C3C30FC3C3C3C3C30FC3C3C3C3F5F5E2E2F5E2E2E2E2E2E2F5E2E2E2E2E2E2E2E2E2E2E2E2E2E2E2E2E2E2E2E2E2E2E2E2E2E2E2E2E2E2
310
E2E2E2E2E2E2E2E2E2E2E2E2E2E2E2E2E2E2E2E2E2E2E2E2E2E2E2E2E2E2E2E2E2E2E2E2E2E2E2E2E2E2E2E2E2E2E2E2E2E2E2E2E2E2E2E2E2E2E2E2E2E2E2E2E2E2E2E2E2E2E2E2E2E2E2E2E2F5E2E2C3E2E20FE2E2C3E20FE2F5E2E2E2E2E2E2E2E2E2E2E2E2E2E2E2E2E2E2E2E2E2E2E2E2E2E2E2E2E2E2E2E2F5F5C328
310
E2E2C3E2E20FE2E2C3E2E20FE2C3C3E20FE2E2C3E2E20FE2E2C3E2F5F5E2E2F5E2E2E2E2E2E2F5E2E2E2E2E2E2E2E2E2E2E2E2E2E2E2E2E2E2E2E2E2E2E2E2E2E2E2E2E2E2E2E2E2E2E2E2E2E2E2E2E2E2E2E2E2E2E2E2E2E2E2E2E2E2E2E2E2E2E2E2E2E2E2E2E2E2E2E2E2E2E2E2E2E2E2E2E2E2E2E2E2E2E2E2E2E2E2E2
310
E2E2E2E2E2E2E2E2E2E2E2E2E2E2E2E2E2E2E2F5E2E2F5E2E20FE2F5F5E20FF5F5E2E2E2E2E2E2E2E2E2E2E2E2E2E2E2E2E2E2E2E2E2E2E2E2E2E2E2E2E2E2E2E2F5F5C328E2E2C3E2E20FE2F5F5E2E20FE2C3C3E20FE2E2C3E2E20FE2F5F5E2F5F5E2E2F5E2E2E2E2E2E2F5E2E2E2E2E2E2E2E2E2E2E2E2E2E2E2E2E2E2E2
310
E2E2E2E2E2E2E2E2E2E2E2E2E2E2E2E2E2E2E2E2E2E2E2E2E2E2E2E2E2E2E2E2E2E2E2E2E2E2E2E2E2E2E2E2E2E2E2E2E2E2E2E2E2E2E2E2E2E2E2E2E2E2E2E2E2E2E2E2E2E2E2E2E2E2E2E2E2E2E2E2E2E2E2E2E2E2E2E2F5C3C3C3C3C30FC3C3C3C3C3C3F5E2E2E2E2E2E2E2E2E2E2E2E2E2E2E2E2E2E2E2E2E2E2E2E2E2
310
E2E2E2E2E2E2E2F5C3E228C3C3C3C3C30FC3C3C3C3C30FC3C3C3C30FC3C3C3C3C30FC3C3C3C3F5F5E2E2F5E2E2E2E2E2E2F5E2E2E2E2E2E2E2E2E2E2E2E2E2E2E2E2E2E2E2E2E2E2E2E2E2E2E2E2E2E2E2E2E2E2E2E2E2E2E2E2E2E2E2E2E2E2E2E2E2E2E2E2E2E2E2E2E2E2E2E2E2E2E2E2E2E2E2E2E2E2E2E2E2E2E2E2E2
310
E2E2E2E2E2E2E2E2E2E2E2E2E2E2E2E2E2E2E2E2E2E2E2E2E2E2E2E2E2E2F5E2E2C3E2E20FE2E2C3E20FE2F5E2E2E2E2E2E2E2E2E2E2E2E2E2E2E2E2E2E2E2E2E2E2E2E2E2E2E2E2E2E2E2F5F5C3F528E2E2C3E2E20FE2E2C3E2E20FE2C3C3E20FE2E2C3E2E20FE2E2C3E2F5F5E2E2F5E2E2E2E2E2E2F5E2E2E2E2E2E2E2E2
310
E2E2E2E2E2E2E2E2E2E2E2E2E2E2E2E2E2E2E2E2E2E2E2E2E2E2E2E2E2E2E2E2E2E2E2E2E2E2E2E2E2E2E2E2E2E2E2E2E2E2E2E2E2E2E2E2E2E2E2E2E2E2E2E2E2E2E2E2E2E2E2E2E2E2E2E2E2E2E2E2E2E2E2E2E2E2E2E2E2E2E2E2E2E2E2E2E2E2E2F5E2E2F5E2E20FE2F5F5E20FF5F5E2E2E2E2E2E2E2E2E2E2E2E2E2E2
310
E2E2E2E2E2E2E2E2E2E2E2E2E2E2E2E2E2F5C3C3E228E2E2C3E2E20FE2F5F5E2E20FE2C3C3E20FE2E2C3E2E20FE2F5F5E2F5F5E2E2F5E2E2E2E2E2E2F5E2E2E2E2E2E2E2E2E2E2E2E2E2E2E2E2E2E2E2E2E2E2E2E2E2E2E2E2E2E2E2E2E2E2E2E2E2E2E2E2E2E2E2E2E2E2E2E2E2E2E2E2E2E2E2E2E2E2E2E2E2E2E2E2E2E2
310
E2E2E2E2E2E2E2E2E2E2E2E2E2E2E2E2E2E2E2E2E2E2E2E2E2E2E2E2E2E2E2E2E2E2E2E2E2E2E2E2E2F5C3C3C3C3C30FC3C3C3C3C3C3F5E2E2E2E2E2E2E2E2E2E2E2E2E2E2E2E2E2E2E2E2E2E2E2E2E2E2E2E2E2E2E2F5F5F5C328C3C3C3C3C30FC3C3C3C3C30FC3C3C3C30FC3C3C3C3C30FC3C3C3C3F5F5E2E2F5E2E2E2E2
310
E2E2F5E2E2E2E2E2E2E2E2E2E2E2E2E2E2E2E2E2E2E2E2E2E2E2E2E2E2E2E2E2E2E2E2E2E2E2E2E2E2E2E2E2E2E2E2E2E2E2E2E2E2E2E2E2E2E2E2E2E2E2E2E2E2E2E2E2E2E2E2E2E2E2E2E2E2E2E2E2E2E2E2E2E2E2E2E2E2E2E2E2E2E2E2E2E2E2E2E2E2E2E2E2E2E2E2E2E2E2F5E2E2C3E2E20FE2E2C3E20FE2F5E2E2E2
310
E2E2E2E2E2E2E2E2E2E2E2E2E2E2E2E2E2E2E2E2E2E2E2E2E2E2E2F5F5E2F5C328E2E2C3E2E20FE2E2C3E2E20FE2C3C3E20FE2E2C3E2E20FE2E2C3E2F5F5E2E2F5E2E2E2E2E2E2F5E2E2E2E2E2E2E2E2E2E2E2E2E2E2E2E2E2E2E2E2E2E2E2E2E2E2E2E2E2E2E2E2E2E2E2E2E2E2E2E2E2E2E2E2E2E2E2E2E2E2E2E2E2E2E2
310
E2E2E2E2E2E2E2E2E2E2E2E2E2E2E2E2E2E2E2E2E2E2E2E2E2E2E2E2E2E2E2E2E2E2E2E2E2E2E2E2E2E2E2E2E2E2E2E2E2E2E2E2F5E2E2F5E2E20FE2F5F5E20FF5F5E2E2E2E2E2E2E2E2E2E2E2E2E2E2E2E2E2E2E2E2E2E2E2E2E2E2E2E2E2E2F5E2C3C3F5F5E2E2C3E2E20FE2F5F5E2E20FE2C3C3E20FE2E2C3E2E20FE2F5
310
F5E2F5F5E2E2F5E2E2E2E2E2E2F5E2E2E2E2E2E2E2E2E2E2E2E2E2E2E2E2E2E2E2E2E2E2E2E2E2E2E2E2E2E2E2E2E2E2E2E2E2E2E2E2E2E2E2E2E2E2E2E2E2E2E2E2E2E2E2E2E2E2E2E2E2E2E2E2E2E2E2E2E2E2E2E2E2E2E2E2E2E2E2E2E2E2E2E2E2E2E2E2E2E2E2E2E2E2E2E2E2E2E2E2E2E2E2E2E2E2E2F5C3C3C3C3C3
310
0FC3C3C3C3C3C3F5E2E2E2E2E2E2E2E2E2E2E2E2E2E2E2E2E2E2E2E2E2E2E2E2E2E2E2E2E2E2F5F5E2C3C328C3C3C3C3C30FC3C3C3C3C30FC3C3C3C30FC3C3C3C3C30FC3C3C3C3F5F5E2E2F5E2E2E2E2E2E2F5E2E2E2E2E2E2E2E2E2E2E2E2E2E2E2E2E2E2E2E2E2E2E2E2E2E2E2E2E2E2E2E2E2E2E2E2E2E2E2E2E2E2E2E2
310
E2E2E2E2E2E2E2E2E2E2E2E2E2E2E2E2E2E2E2E2E2E2E2E2E2E2E2E2E2E2E2E2E2E2E2E2E2E2E2E2E2E2E2E2E2E2E2E2E2E2E2E2E2E2E2E2E2E2E2E2E2E2E2F5C3C3C3C3C30FC3C3C3C3C3C3F5E2E2E2E2E2E2E2E2E2E2E2E2E2E2E2E2E2E2E2E2E2E2E2E2E2E2E2E2E2E2F5E2C3F5F528C3C3C3C3C30FC3C3C3C3C30FC3C3
310
C3C30FC3C3C3C3C30FC3C3C3C3F5F5E2E2F5E2E2E2E2E2E2F5E2E2E2E2E2E2E2E2E2E2E2E2E2E2E2E2E2E2E2E2E2E2E2E2E2E2E2E2E2E2E2E2E2E2E2E2E2E2E2E2E2E2E2E2E2E2E2E2E2E2E2E2E2E2E2E2E2E2E2E2E2E2E2E2E2E2E2E2E2E2E2E2E2E2E2E2E2E2E2E2E2E2E2E2E2E2E2E2E2E2E2E2E2E2E2E2E2E2E2E2E2E2
310
E2E2E2E2E2F5E2E2F5E2E20FE2F5F5E20FF5E2F5E2E2E2E2E2E2E2E2E2E2E2E2E2E2E2E2E2E2E2E2E2E2E2E2E2E2E2E2F5F5C3C3E2E228E2E2C3E2E20FE2F5F5E2E20FE2C3C3E20FE2E2C3E2E20FE2F5F5E2F5F5E2E2F5E2E2E2E2E2E2F5E2E2E2E2E2E2E2E2E2E2E2E2E2E2E2E2E2E2E2E2E2E2E2E2E2E2E2E2E2E2E2E2E2
310
E2E2E2E2E2E2E2E2E2E2E2E2E2E2E2E2E2E2E2E2E2E2E2E2E2E2E2E2E2E2E2E2E2E2E2E2E2E2E2E2E2E2E2E2E2E2E2E2E2E2E2E2E2E2E2E2E2E2E2E2E2E2E2E2E2E2E2E2E2E2E2E2E2E2F5C3C3C3C3C30FC3C3C3C3C3C3C3F5E2E2E2E2E2E2E2E2E2E2E2E2E2E2E2E2E2E2E2E2E2E2E2E2E2E2E2E2F5F5C3E2C3F528C3C3C3
310
C3C30FC3C3C3C3C30FC3C3C3C30FC3C3C3C3C30FC3C3C3C3F5F5E2E2F5E2E2E2E2E2E2F5E2E2E2E2E2E2E2E2E2E2E2E2E2E2E2E2E2E2E2E2E2E2E2E2E2E2E2E2E2E2E2E2E2E2E2E2E2E2E2E2E2E2E2E2E2E2E2E2E2E2E2E2E2E2E2E2E2E2E2E2E2E2E2E2E2E2E2E2E2E2E2E2E2E2E2E2E2E2E2E2E2E2E2E2E2E2E2E2E2E2E2
310
E2E2E2E2E2E2E2E2E2E2E2E2E2E2E2E2F5C3C3C3C3C30FC3C3C3C3C3C3C3F5E2E2E2E2E2E2E2E2E2E2E2E2E2E2E2E2E2E2E2E2E2E2E2E2E2E2E2E2F5C3C3E2E20F28C3C3C3C3C30FC3C3C3C3C30FC3C3C3C30FC3C3C3C3C30FC3C3C3C3F5F5E2E2F5E2E2E2E2E2E2F5E2E2E2E2E2E2E2E2E2E2E2E2E2E2E2E2E2E2E2E2E2E2
310
E2E2E2E2E2E2E2E2E2E2E2E2E2E2E2E2E2E2E2E2E2E2E2E2E2E2E2E2E2E2E2E2E2E2E2E2E2E2E2E2E2E2E2E2E2E2E2E2E2E2E2E2E2E2E2E2E2E2E2E2E2E2E2E2E2E2E2E2E2E2E2E2E2E2E2E2E2E2E2E2E2E2E2E2E2F5E2E2F5E2E20FE2F5F5E20FF5E2F5E2E2E2E2E2E2E2E2E2E2E2E2E2E2E2E2E2E2E2E2E2E2E2E2E2E2E2
310
F5F5C3C3E20FF5F5E2E2C3E2E20FE2F5F5E2E20FE2C3C3E20FE2E2C3E2E20FE2F5F5E2F5F5E2E2F5E2E2E2E2E2E2F5E2E2E2E2E2E2E2E2E2E2E2E2E2E2E2E2E2E2E2E2E2E2E2E2E2E2E2E2E2E2E2E2E2E2E2E2E2E2E2E2E2E2E2E2E2E2E2E2E2E2E2E2E2E2E2E2E2E2E2E2E2E2E2E2E2E2E2E2E2E2E2E2E2E2E2E2E2E2E2E2
310
E2E2E2E2E2E2E2E2E2E2E2E2E2E2E2E2E2E2E2E2E2E2E2E2E2E2E2F5C3C3C3C3C30FC3C3C3C3C3C3C3F5F5E2E2E2E2E2E2E2E2E2E2E2E2E2E2E2E2E2E2E2E2E2E2E2E2E2E2F5F5C3E2C30FE2F5C3C3C3C3C30FC3C3C3C3C30FC3C3C3C30FC3C3C3C3C30FC3C3C3C3F5F5E2E2F5E2E2E2E2E2E2F5E2E2E2E2E2E2E2E2E2E2E2
310
E2E2E2E2E2E2E2E2E2E2E2E2E2E2E2E2E2E2E2E2E2E2E2E2E2E2E2E2E2E2E2E2E2E2E2E2E2E2E2E2E2E2E2E2E2E2E2E2E2E2E2E2E2E2E2E2E2E2E2E2E2E2E2E2E2E2E2E2E2E2E2E2E2E2E2E2E2E2E2E2E2E2E2E2E2E2E2E2E2E2E2E2E2E2E2E2F5C3C3C3C3C30FC3C3C3C3C3C3C3C3F5E2E2E2E2E2E2E2E2E2E2E2E2E2E2E2
310
E2E2E2E2E2E2E2E2E2E2F5F5C3E2E20FC3C328C3C3C3C3C30FC3C3C3C3C30FC3C3C3C30FC3C3C3C3C30FC3C3C3C3F5F5E2E2F5E2E2E2E2E2E2F5E2E2E2E2E2E2E2E2E2E2E2E2E2E2E2E2E2E2E2E2E2E2E2E2E2E2E2E2E2E2E2E2E2E2E2E2E2E2E2E2E2E2E2E2E2E2E2E2E2E2E2E2E2E2E2E2E2E2E2E2E2E2E2E2E2E2E2E2E2
310
E2E2E2E2E2E2E2E2E2E2E2E2E2E2E2E2E2E2E2E2E2E2E2E2E2E2E2E2E2E2E2E2E2E2E2E2E2E2F5E2E2F5E2E20FE2F5F5E20FE2E2C3F5E2E2E2E2E2E2E2E2E2E2E2E2E2E2E2E2E2E2E2E2E2E2E2E2E2F5F5C3C3E20FE2E228E2E2C3E2E20FE2F5F5E2E20FE2C3C3E20FE2E2C3E2E20FE2F5F5E2F5F5E2E2F5E2E2E2E2E2E2F5
310
E2E2E2E2E2E2E2E2E2E2E2E2E2E2E2E2E2E2E2E2E2E2E2E2E2E2E2E2E2E2E2E2E2E2E2E2E2E2E2E2E2E2E2E2E2E2E2E2E2E2E2E2E2E2E2E2E2E2E2E2E2E2E2E2E2E2E2E2E2E2E2E2E2E2E2E2E2E2E2E2E2E2E2E2E2E2E2E2E2E2E2E2E2E2E2E2E2E2E2E2E2E2E2E2E2E2E2F5C3C3C3C3C30FC3C3C3C3C3C3C3F5F5C3E2E2E2
310
E2E2E2E2E2E2E2E2E2E2E2E2E2E2E2E2E2E2E2E2E2F5C3E2E20FC3E2C328C3C3C3C3C30FC3C3C3C3C30FC3C3C3C30FC3C3C3C3C30FC3C3C3C3F5F5E2E2F5E2E2E2E2E2E2F5E2E2E2E2E2E2E2E2E2E2E2E2E2E2E2E2E2E2E2E2E2E2E2E2E2E2E2E2E2E2E2E2E2E2E2E2E2E2E2E2E2E2E2E2E2E2E2E2E2E2E2E2E2E2E2E2E2E2
310
E2E2E2E2E2E2E2E2E2E2E2E2E2E2E2E2E2E2E2E2E2E2E2E2E2E2E2E2E2E2E2E2E2E2E2E2E2E2E2E2E2E2E2E2E2E2E2E2E2F5C3C3C3C3C30FC3C3C3C3C3C3C3C3C3F5E2E2E2E2E2E2E2E2E2E2E2E2E2E2E2E2E2E2E2E2E2E2E2F5F5C3C30FE2E2C3F5F5C3C3C3C3C30FC3C3C3C3C30FC3C3C3C30FC3C3C3C3C30FC3C3C3C3F5
310
F5E2E2F5E2E2E2E2E2E2F5E2E2E2E2E2E2E2E2E2E2E2E2E2E2E2E2E2E2E2E2E2E2E2E2E2E2E2E2E2E2E2E2E2E2E2E2E2E2E2E2E2E2E2E2E2E2E2E2E2E2E2E2E2E2E2E2E2E2E2E2E2E2E2E2E2E2E2E2E2E2E2E2E2E2E2E2E2E2E2E2E2E2E2E2E2E2E2E2E2E2E2E2E2E2E2E2E2E2E2E2E2E2E2E2E2E2E2F5E2E2F5E2E20FE2F5
310
F5E20FE2E2C3F5F5E2E2E2E2E2E2E2E2E2E2E2E2E2E2E2E2E2E2E2E2E2E2E2F5C3C3C30FE2E2C3E228E2E2C3E2E20FE2F5F5E2E20FE2C3C3E20FE2E2C3E2E20FE2F5F5E2F5F5E2E2F5E2E2E2E2E2E2F5E2E2E2E2E2E2E2E2E2E2E2E2E2E2E2E2E2E2E2E2E2E2E2E2E2E2E2E2E2E2E2E2E2E2E2E2E2E2E2E2E2E2E2E2E2E2E2
310
E2E2E2E2E2E2E2E2E2E2E2E2E2E2E2E2E2E2E2E2E2E2E2E2E2E2E2E2E2E2E2E2E2E2E2E2E2E2E2E2E2E2E2E2E2E2E2E2E2E2E2E2E2E2E2E2E2E2E2E2F5E2E2C3E2E20FE2E2C3E20FE2E2C3E2F5E2E2E2E2E2E2E2E2E2E2E2E2E2E2E2E2E2E2E2E2E2E2E2F5C3E20FC3C3C3F5F528E2E2C3E2E20FE2E2C3E2E20FE2C3C3E20F
310
E2E2C3E2E20FE2E2C3E2F5F5E2E2F5E2E2E2E2E2E2F5E2E2E2E2E2E2E2E2E2E2E2E2E2E2E2E2E2E2E2E2E2E2E2E2E2E2E2E2E2E2E2E2E2E2E2E2E2E2E2E2E2E2E2E2E2E2E2E2E2E2E2E2E2E2E2E2E2E2E2E2E2E2E2E2E2E2E2E2E2E2E2E2E2E2E2E2E2E2E2E2E2E2E2E2E2E2E2E2E2E2E2E2E2E2E2E2E2E2E2E2E2E2E2E2E2
310
E2E2F5C3C3C3C3C3C3C3C3C3C3C3C3C3C3C3F5F5E2E2E2E2E2E2E2E2E2E2E2E2E2E2E2E2E2E2E2E2E2F5F5C3C30FE2E2C3C3C328C3C3C3C3C30FC3C3C3C3C3C3C3C3C3C3C3C3C3C3C3C3C3C3C3C3C3F5F5E2E2F5E2E2E2E2E2E2F5E2E2E2E2E2E2E2E2E2E2E2E2E2E2E2E2E2E2E2E2E2E2E2E2E2E2E2E2E2E2E2E2E2E2E2E2
310
E2E2E2E2E2E2E2E2E2E2E2E2E2E2E2E2E2E2E2E2E2E2E2E2E2E2E2E2E2E2E2E2E2E2E2E2E2E2E2E2E2E2E2E2E2E2E2E2E2E2E2E2E2E2E2E2E2E2E2E2E2E2E2E2E2E2E2E2E2E2E2F5E2E2F5E2E20FE2F5F5E20FE2E2C3F5E2F5E2E2E2E2E2E2E2E2E2E2E2E2E2E2E2E2E2E2E2E2E2F5F5F50FC3E2E2C3C30FF5E2E2C3E2E20F
310
E2F5F5E2E20FE2C3C3E20FE2E2C3E2E20FE2F5F5E2F5F5E2E2F5E2E2E2E2E2E2F5E2E2E2E2E2E2E2E2E2E2E2E2E2E2E2E2E2E2E2E2E2E2E2E2E2E2E2E2E2E2E2E2E2E2E2E2E2E2E2E2E2E2E2E2E2E2E2E2E2E2E2E2E2E2E2E2E2E2E2E2E2E2E2E2E2E2E2E2E2E2E2E2E2E2E2E2E2E2E2E2E2E2E2E2E2E2E2E2E2E2E2E2E2E2
310
E2E2E2E2E2E2E2E2E2E2E2E2E2F5E2E2C3E2E20FE2E2C3E20FE2E2C3E2E2F5E2E2E2E2E2E2E2E2E2E2E2E2E2E2E2E2E2E2E2E2C3F5F5F50FE2C3C3E2E20F28E2E2C3E2E20FE2E2C3E2E20FE2C3C3E20FE2E2C3E2E20FE2E2C3E2F5F5E2E2F5E2E2E2E2E2E2F5E2E2E2E2E2E2E2E2E2E2E2E2E2E2E2E2E2E2E2E2E2E2E2E2E2
310
E2E2E2E2E2E2E2E2E2E2E2E2E2E2E2E2E2E2E2E2E2E2E2E2E2E2E2E2E2E2E2E2E2E2E2E2E2E2E2E2E2E2E2E2E2E2E2E2E2E2E2E2E2E2E2E2E2E2E2E2E2E2E2E2E2E2E2E2E2E2E2E2E2E2E2E2E2E2E2E2E2E2F5C3C3C3C3C3C3C3C3C3C3C3C3C3C3C3C3F5E2E2E2E2E2E2E2E2E2E2E2E2E2E2E2E2E2E2E2E2F5C3C30FE2E2C3
310
E2C30FF5F5C3C3C3C3C30FC3C3C3C3C3C3C3C3C3C3C3C3C3C3C3C3C3C3C3C3C3F5F5E2E2F5E2E2E2E2E2E2F5E2E2E2E2E2E2E2E2E2E2E2E2E2E2E2E2E2E2E2E2E2E2E2E2E2E2E2E2E2E2E2E2E2E2E2E2E2E2E2E2E2E2E2E2E2E2E2E2E2E2E2E2E2E2E2E2E2E2E2E2E2E2E2E2E2E2E2E2E2E2E2E2E2E2E2E2E2E2E2E2E2E2E2
310
E2E2E2E2E2E2E2E2E2E2E2E2E2E2E2E2E2E2E2E2E2E2E2E2F5E2E2F5E2E20FE2F5F5E20FE2E2C3F5E2F5F5E2E2E2E2E2E2E2E2E2E2E2E2E2E2E2E2E2E2E2F5F50FC3C3C3C3E2E20FF5F5E2E2C3E2E20FE2F5F5E2E20FE2C3C3E20FE2E2C3E2E20FE2F5F5E2F5F5E2E2F5E2E2E2E2E2E2F5E2E2E2E2E2E2E2E2E2E2E2E2E2E2
310
E2E2E2E2E2E2E2E2E2E2E2E2E2E2E2E2E2E2E2E2E2E2E2E2E2E2E2E2E2E2E2E2E2E2E2E2E2E2E2E2E2E2E2E2E2E2E2E2E2E2E2E2E2E2E2E2E2E2E2E2E2E2E2E2E2E2E2E2E2E2E2E2E2E2E2E2E2E2E2E2E2E2E2E2E2E2E2E2E2E2E2E2E2F5E2E2C3E2E20FE2E2C3E20FE2E2C3E2E228F5E2E2E2E2E2E2E2E2E2E2E2E2E2E2E2
310
E2E2E2F5E2E20FE2E2C3C3E20FE2E228E2E2C3E2E20FE2E2C3E2E20FE2C3C3E20FE2E2C3E2E20FE2E2C3E2F5F5E2E2F5E2E2E2E2E2E2F5E2E2E2E2E2E2E2E2E2E2E2E2E2E2E2E2E2E2E2E2E2E2E2E2E2E2E2E2E2E2E2E2E2E2E2E2E2E2E2E2E2E2E2E2E2E2E2E2E2E2E2E2E2E2E2E2E2E2E2E2E2E2E2E2E2E2E2E2E2E2E2E2
310
E2E2E2E2E2E2E2E2E2E2E2E2E2E2E2E2E2E2E2E2E2E2E2E2E2E2E2E2E2E2E2E2E2E2E2F5C3C3C3C3C3C3C3C3C3C3C3C3C3C3C3C328F5E2E2E2E2E2E2E2E2E2E2E2E2E2E2E2E2E2E2F5C30FE2E2E2C3E2C30FE2F528C3C3C3C3C30FC3C3C3C3C3C3C3C3C3C3C3C3C3C3C3C3C3C3C3C3C3F5F5E2E2F5E2E2E2E2E2E2F5E2E2E2
310
E2E2E2E2E2E2E2E2E2E2E2E2E2E2E2E2E2E2E2E2E2E2E2E2E2E2E2E2E2E2E2E2E2E2E2E2E2E2E2E2E2E2E2E2E2E2E2E2E2E2E2E2E2E2E2E2E2E2E2E2E2E2E2E2E2E2E2E2E2E2E2E2E2E2E2E2E2E2E2E2E2E2E2E2E2E2E2E2E2E2E2E2E2E2E2E2E2E2E2E2E2E2E2E2F5E2E2F5E2E20FE2F5F5E20FE2E2C3E2E228F5F5E2E2E2
310
E2E2E2E2E2E2E2E2E2E2E2E2E2F5F5F50FC3C3C3E2E20FE2C3F528E2E2C3E2E20FE2F5F5E2E20FE2C3C3E20FE2E2C3E2E20FE2F5F5E2F5F5E2E2F5E2E2E2E2E2E2F5E2E2E2E2E2E2E2E2E2E2E2E2E2E2E2E2E2E2E2E2E2E2E2E2E2E2E2E2E2E2E2E2E2E2E2E2E2E2E2E2E2E2E2E2E2E2E2E2E2E2E2E2E2E2E2E2E2E2E2E2E2
310
E2E2E2E2E2E2E2E2E2E2E2E2E2E2E2E2E2E2E2E2E2E2E2E2E2E2E2E2E2E2E2E2E2E2E2E2E2E2E2E2E2E2E2E2E2E2F5E2E2C3E2E20FE2E2C3E20FE2E2C3E2E2F5F5F5E2E2E2E2E2E2E2E2E2E2E2E2E2E2F5F5F5C30FE2E2C3C3C30FE2E2E2C3F5E2E2C3E2E20FE2E2C3E2E20FE2C3C3E20FE2E2C3E2E20FE2E2C3E2F5F5E2E2
310
F5E2E2E2E2E2E2F5E2E2E2E2E2E2E2E2E2E2E2E2E2E2E2E2E2E2E2E2E2E2E2E2E2E2E2E2E2E2E2E2E2E2E2E2E2E2E2E2E2E2E2E2E2E2E2E2E2E2E2E2E2E2E2E2E2E2E2E2E2E2E2E2E2E2E2E2E2E2E2E2E2E2E2E2E2E2E2E2E2E2E2E2E2E2E2E2E2E2E2E2E2E2E2E2E2E2E2E2E2E2E2E2E2E2E2F5C3C3C3C3C3C3C3C3C3C3C3
310
C3C3C3C3C328F5F5F5E2E2E2E2E2E2E2E2E2E2E2E2F5F5F5E20F0FC3C3C3E2C30FE2E2F5F528C3C3C3C3C30FC3C3C3C3C3C3C3C3C3C3C3C3C3C3C3C3C3C3C3C3C3F5F5E2E2F5E2E2E2E2E2E2F5E2E2E2E2E2E2E2E2E2E2E2E2E2E2E2E2E2E2E2E2E2E2E2E2E2E2E2E2E2E2E2E2E2E2E2E2E2E2E2E2E2E2E2E2E2E2E2E2E2E2
310
E2E2E2E2E2E2E2E2E2E2E2E2E2E2E2E2E2E2E2E2E2E2E2E2E2E2E2E2E2E2E2E2E2E2E2E2E2E2E2E2E2E2E2E2E2E2E2E2E2E2E2E2E2E2E2E2E2F5E2E2F5E2E20FE2F5F5E20FE2E2C3E2E228F5F5F5F5E2E2E2E2E2E2E2E2E2E2F5C3C3C3E20FE2C3C3C3E20FE2C3C3C3F528E2E2C3E2E20FE2F5F5E2E20FE2C3C3E20FE2E2C3
310
E2E20FE2F5F5E2F5F5E2E2F5E2E2E2E2E2E2F5E2E2E2E2E2E2E2E2E2E2E2E2E2E2E2E2E2E2E2E2E2E2E2E2E2E2E2E2E2E2E2E2E2E2E2E2E2E2E2E2E2E2E2E2E2E2E2E2E2E2E2E2E2E2E2E2E2E2E2E2E2E2E2E2E2E2E2E2E2E2E2E2E2E2E2E2E2E2E2E2E2E2E2E2E2E2E2E2E2E2E2E2E2E2E2E2E2E2E2E2E2E2E2E2E2E2E2F5
310
E2E2C3E2E20FE2E2C3E20FE2E2C3E2E228C3C3E2F5F5F5E2E2E2E2E2E2F5F5F5C3C3C30FC3E2E2C3C3C30FE2E2C3C3C328E2E2C3E2E20FE2E2C3E2E20FE2C3C3E20FE2E2C3E2E20FE2E2C3E2F5F5E2E2F5E2E2E2E2E2E2F5E2E2E2E2E2E2E2E2E2E2E2E2E2E2E2E2E2E2E2E2E2E2E2E2E2E2E2E2E2E2E2E2E2E2E2E2E2E2E2
310
E2E2E2E2E2E2E2E2E2E2E2E2E2E2E2E2E2E2E2E2E2E2E2E2E2E2E2E2E2E2E2E2E2E2E2E2E2E2E2E2E2E2E2E2E2E2E2E2E2E2E2E2E2E2E2E2E2E2E2E2E2E2E2E2E2E2E2E2F5C3C3C3C3C3C3C3C3C3C3C3C3C3C3C3C328F5C3C3C30FF5F5F5F5F5F5F5F5E2F5C3E2E20FC3C3C3E2E20FC3C3C3F5F5E2F5F5F5F5F5F50FC3C3C3
310
C3C3C3C3C3C3C3C3C3C3C3C3C3C3C3C3C3C3F5F5E2E2F5E2E2E2E2E2E2F5E2E2E2E2E2E2E2E2E2E2E2E2E2E2E2E2E2E2E2E2E2E2E2E2E2E2E2E2E2E2E2E2E2E2E2E2E2E2E2E2E2E2E2E2E2E2E2E2E2E2E2E2E2E2E2E2E2E2E2E2E2E2E2E2E2E2E2E2E2E2E2E2E2E2E2E2E2E2E2E2E2E2E2E2E2E2E2E2E2E2E2E2E2E2E2E2E2
310
E2E2E2E2E2E2E2E2E2E2F5E2E2F5E2E20FE2F5F5E20FE2E2C3E2E228F5E2E2E20FF5F5C3E2C3F5E2F5E2C3E2C30FE2E2C3C3C3E20FE2E2C3C3C3F5F5F5E2E2F5F50FE2F5F5E2E20FE2C3C3E20FE2E2C3E2E20FE2F5F5E2F5F5E2E2F5E2E2E2E2E2E2F5E2E2E2E2E2E2E2E2E2E2E2E2E2E2E2E2E2E2E2E2E2E2E2E2E2E2E2E2
310
E2E2E2E2E2E2E2E2E2E2E2E2E2E2E2E2E2E2E2E2E2E2E2E2E2E2E2E2E2E2E2E2E2E2E2E2E2E2E2E2E2E2E2E2E2E2E2E2E2E2E2E2E2E2E2E2E2E2E2E2E2E2E2E2E2E2E2E2E2E2E2E2E2E2E2E2E2E2E2F5E2E2F5E2E20FE2F5C3E20FE2E2C3E2E2F5C3E2E20FE2C3C3C3F5E20FC3C3C3E2E20F0FC3C3C3E2C30FE2E2F5F5E2C3
310
F5E2E2E2E2E2F5F5E2F5C3E2E20FE2C3C3E20FE2E2C3E2E20FE2F5C3E2F5F5E2E2F5E2E2E2E2E2E2F5E2E2E2E2E2E2E2E2E2E2E2E2E2E2E2E2E2E2E2E2E2E2E2E2E2E2E2E2E2E2E2E2E2E2E2E2E2E2E2E2E2E2E2E2E2E2E2E2E2E2E2E2E2E2E2E2E2E2E2E2E2E2E2E2E2E2E2E2E2E2E2E2E2E2E2E2E2E2E2E2E2E2E2E2E2E2
310
E2E2E2E2E2E2E2E2E2E2E2E2E2E2E2E2E2E2E2E2E2F5C3C3C3C3C3C3C3C3C3C3C3C3C3C3C3C328C3C3E20FE2C3C3C3C30FE2E2E2C3E2E20FE2E2C3C3E20FE2C3C3C3E2E2F5E2E2E2E2E2E2E2F5C3C3C3C3C3C3C3C3C3C3C3C3C3C3C3C3C3C3C3C3C3F5F5E2E2F5E2E2E2E2E2E2F5E2E2E2E2E2E2E2E2E2E2E2E2E2E2E2E2E2
310
E2E2E2E2E2E2E2E2E2E2E2E2E2E2E2E2E2E2E2E2E2E2E2E2E2E2E2E2E2E2E2E2E2E2E2E2E2E2E2E2E2E2E2E2E2E2E2E2E2E2E2E2E2E2E2E2E2E2E2E2E2E2E2E2E2E2E2E2E2E2E2E2E2E2E2E2E2E2E2E2E2E2E2E2E2E2E2E2E2E2F5E2E2F5E2E20FE2F5F5E20FE2E2C3E2E228F5E20FC3E2C3C3E2E20FC3E2C3E2C30F0FE2E2
310
C3E2C30FE2E2C3C3C3E2F5E2E2E2E2E2E2E2F5E2F5F5E2E20FE2C3C3E20FE2E2C3E2E20FE2F5F5E2F5F5E2E2F5E2E2E2E2E2E2F5E2E2E2E2E2E2E2E2E2E2E2E2E2E2E2E2E2E2E2E2E2E2E2E2E2E2E2E2E2E2E2E2E2E2E2E2E2E2E2E2E2E2E2E2E2E2E2E2E2E2E2E2E2E2E2E2E2E2E2E2E2E2E2E2E2E2E2E2E2E2E2E2E2E2E2
310
E2E2E2E2E2E2E2E2E2E2E2E2E2E2E2E2E2E2E2E2E2E2E2E2E2E2E2E2E2E2E2E2F5E2E2F5E2E20FE2F5C3E20FE2E2C3E2E228E20FE2E2C3C3E2E20FE2C3C3E2E2E20FC3C3C3E2E20FC3C3C3F5F5E2F5E2E2E2E2E2E2E2E2F5E2F5C3E2E20FE2C3C3E20FE2E2C3E2E20FE2F5C3E2F5F5E2E2F5E2E2E2E2E2E2F5E2E2E2E2E2E2
310
E2E2E2E2E2E2E2E2E2E2E2E2E2E2E2E2E2E2E2E2E2E2E2E2E2E2E2E2E2E2E2E2E2E2E2E2E2E2E2E2E2E2E2E2E2E2E2E2E2E2E2E2E2E2E2E2E2E2E2E2E2E2E2E2E2E2E2E2E2E2E2E2E2E2E2E2E2E2E2E2E2E2E2E2E2E2E2E2E2E2E2E2E2E2E2E2E2E2E2E2E2F5C3C3C3C3C3C3C3C3C3C3C3C3C3C3C3C328C30FE2E2C3E2C3E2
310
0FE2E2C3C3C30FE2E2E2C3C3E20FE2E2C3C3C3E2F5E2E2E2E2E2E2E2E2F5C3C3C3C3C3C3C3C3C3C3C3C3C3C3C3C3C3C3C3C3C3F5F5E2E2F5E2E2E2E2E2E2F5E2E2E2E2E2E2E2E2E2E2E2E2E2E2E2E2E2E2E2E2E2E2E2E2E2E2E2E2E2E2E2E2E2E2E2E2E2E2E2E2E2E2E2E2E2E2E2E2E2E2E2E2E2E2E2E2E2E2E2E2E2E2E2E2
310
E2E2E2E2E2E2E2E2E2E2E2E2E2E2E2E2E2E2E2E2E2E2E2E2E2E2E2E2E2E2E2E2E2E2E2E2E2E2E2E2E2E2E2F5E2E2F5E2E20FE2E2F5E20FE2E2C3E2E2F5F5E2C3C3C3E2E20FC3E2C3E2E2E20FE2E2C3E2E20FE2E2F5F5C3C3F5E2E2E2E2E2E2E2E2E2F5E2E2F5E2E20FE2C3C3E20FE2E2C3E2E20FE2E2F5E2F5F5E2E2F5E2E2
310
E2E2E2E2F5E2E2E2E2E2E2E2E2E2E2E2E2E2E2E2E2E2E2E2E2E2E2E2E2E2E2E2E2E2E2E2E2E2E2E2E2E2E2E2E2E2E2E2E2E2E2E2E2E2E2E2E2E2E2E2E2E2E2E2E2E2E2E2E2E2E2E2E2E2E2E2E2E2E2E2E2E2E2E2E2E2E2E2E2E2E2E2E2E2E2E2E2E2E2E2E2E2E2E2E2E2E2E2E2E2E2E2F5E2E2F5E2E20FE2F5C3E20FE2E2C3
310
E2E2280FE2E2C3C3E20FE2E2C3C3E2E20FE2C3C3E2E2E20FC3C3F5F5E2E2F5E2E2E2E2E2E2E2E2E2F5E2F5C3E2E20FE2C3C3E20FE2E2C3E2E20FE2F5C3E2F5F5E2E2F5E2E2E2E2E2E2F5E2E2E2E2E2E2E2E2E2E2E2E2E2E2E2E2E2E2E2E2E2E2E2E2E2E2E2E2E2E2E2E2E2E2E2E2E2E2E2E2E2E2E2E2E2E2E2E2E2E2E2E2E2
310
E2E2E2E2E2E2E2E2E2E2E2E2E2E2E2E2E2E2E2E2E2E2E2E2E2E2E2E2E2E2E2E2E2E2E2E2E2E2E2E2E2E2E2E2E2E2E2E2E2E2E2E2E2E2F5C3C3C3C3C3C3C3C3C3C3C3C3C3C3C3C328E2E2C3C3E2C30FE2E2C3E2C30F0FE2E2C3C3C30FE2E2C3C3C3E2F5E2E2E2E2E2E2E2E2E2E2F5C3C3C3C3C3C3C3C3C3C3C3C3C3C3C3C3C3
310
C3C3C3C3F5F5E2E2F5E2E2E2E2E2E2F5E2E2E2E2E2E2E2E2E2E2E2E2E2E2E2E2E2E2E2E2E2E2E2E2E2E2E2E2E2E2E2E2E2E2E2E2E2E2E2E2E2E2E2E2E2E2E2E2E2E2E2E2E2E2E2E2E2E2E2E2E2E2E2E2E2E2E2E2E2E2E2E2E2E2E2E2E2E2E2E2E2E2E2E2E2E2E2E2E2E2E2E2E2E2E2E2E2E2E2E2E2E2E2E2E2E2E2F5E2E2F5
310
E2E20FE2E2F5E20FE2E2C3E2E228C3C3C3E2E20FE2C3C3C3E2E20FC3C3C3E2E20FC3E2E2F5F5E2F5E2E2E2E2E2E2E2E2E2E2E2F5E2E2F5E2E20FE2C3C3E20FE2E2C3E2E20FE2E2F5E2F5F5E2E2F5E2E2E2E2E2E2F5E2E2E2E2E2E2E2E2E2E2E2E2E2E2E2E2E2E2E2E2E2E2E2E2E2E2E2E2E2E2E2E2E2E2E2E2E2E2E2E2E2E2
310
E2E2E2E2E2E2E2E2E2E2E2E2E2E2E2E2E2E2E2E2E2E2E2E2E2E2E2E2E2E2E2E2E2E2E2E2E2E2E2E2E2E2E2E2E2E2E2E2E2E2E2E2E2E2E2E2E2E2E2E2E2E2E2E2E2F5E2E2F5E2E20FE2F5C3E20FBAE2C3E2E228F5C3C3C3E20FE2E2C3C3C30F0FE2E2C3E2E20FE2C3C3E2E2E2F5E2E2E2E2E2E2E2E2E2E2E2F5E2F5C3E2E20F
310
E2C3C3E20FE2E2C3E2E20FE2F5C3E2F5F5E2E2F5E2E2E2E2E2E2F5E2E2E2E2E2E2E2E2E2E2E2E2E2E2E2E2E2E2E2E2E2E2E2E2E2E2E2E2E2E2E2E2E2E2E2E2E2E2E2E2E2E2E2E2E2E2E2E2E2E2E2E2E2E2E2E2E2E2E2E2E2E2E2E2E2E2E2E2E2E2E2E2E2E2E2E2E2E2E2E2E2E2E2E2E2E2E2E2E2E2E2E2E2E2E2E2E2E2E2E2
310
E2E2E2E2E2E2E2F5C3C3C3C3C3C3C3C3C3C3C3C3C3C3C3C328E2C3E2E20FC3E2C3C3E2C30FE2E2C3E2C30FE2E2E2C3C3C3F5E2E2E2E2E2E2E2E2E2E2E2E2F5C3C3C3C3C3C3C3C3C3C3C3C3C3C3C3C3C3C3C3C3C3F5F5E2E2F5E2E2E2E2E2E2F5E2E2E2E2E2E2E2E2E2E2E2E2E2E2E2E2E2E2E2E2E2E2E2E2E2E2E2E2E2E2E2
310
E2E2E2E2E2E2E2E2E2E2E2E2E2E2E2E2E2E2E2E2E2E2E2E2E2E2E2E2E2E2E2E2E2E2E2E2E2E2E2E2E2E2E2E2E2E2E2E2E2E2E2E2E2E2E2E2E2E2E2E2E2E2E2E2E2E2E2E2E2E2E2E2E2E2E2E2F5E2E2F5E2E20FE2E2F5E20FBABAC3BABA28F5C3E2E20FE2C3C3E2E20FE2C3C3C3E2E20FC3C3F5F5E2E2F5E2E2E2E2E2E2E2E2
310
E2E2E2E2F5E2E2F5E2E20FE2C3C3E20FE2E2C3E2E20FE2E2F5E2F5F5E2E2F5E2E2E2E2E2E2F5E2E2E2E2E2E2E2E2E2E2E2E2E2E2E2E2E2E2E2E2E2E2E2E2E2E2E2E2E2E2E2E2E2E2E2E2E2E2E2E2E2E2E2E2E2E2E2E2E2E2E2E2E2E2E2E2E2E2E2E2E2E2E2E2E2E2E2E2E2E2E2E2E2E2E2E2E2E2E2E2E2E2E2E2E2E2E2E2E2
310
E2E2E2E2E2E2E2E2E2E2E2E2E2E2E2E2E2E2F5E2E2F5E2E20FE2F5C3E20FBABAC3BABA28C3BAC30FE2E2C3E2C30F0FE2E2C3C3C30FE2E2E2C3C3E2F5E2E2E2E2E2E2E2E2E2E2E2E2E2F5E2F5C3E2E20FE2C3C3E20FE2E2C3E2E20FE2F5C3E2F5F5E2E2F5E2E2E2E2E2E2F5E2E2E2E2E2E2E2E2E2E2E2E2E2E2E2E2E2E2E2E2
310
E2E2E2E2E2E2E2E2E2E2E2E2E2E2E2E2E2E2E2E2E2E2E2E2E2E2E2E2E2E2E2E2E2E2E2E2E2E2E2E2E2E2E2E2E2E2E2E2E2E2E2E2E2E2E2E2E2E2E2E2E2E2E2E2E2E2E2E2E2E2E2E2E2E2E2E2E2E2E2E2E2E2E2E2E2E2E2F5C3C3C3C3C3C3C3C3C3C3C3C3C3C3C3C328BAF50FBAC3C3C3BABA0FC3E2C3E2E2E20FE2E2F5F5E2
310
C3F5E2E2E2E2E2E2E2E2E2E2E2E2E2F5C3C3C3C3C3C3C3C3C3C3C3C3C3C3C3C3C3C3C3C3C3F5F5E2E2F5E2E2E2E2E2E2F5E2E2E2E2E2E2E2E2E2E2E2E2E2E2E2E2E2E2E2E2E2E2E2E2E2E2E2E2E2E2E2E2E2E2E2E2E2E2E2E2E2E2E2E2E2E2E2E2E2E2E2E2E2E2E2E2E2E2E2E2E2E2E2E2E2E2E2E2E2E2E2E2E2E2E2E2E2E2
310
E2E2E2E2E2E2E2E2E2E2E2E2E2E2E2E2E2E2E2E2E2E2E2E2E2E2E2E2E2F5E2E2F5E2E20FE2E2F5E20FBABAC3BABA28BABA0FBABAC3C3BA0F0FE2C3C3E2E20FE2C3C3E2E2E2F5E2E2E2E2E2E2E2E2E2E2E2E2E2E2F5E2E2F5E2E20FE2C3C3E20FE2E2C3E2E20FE2E2F5E2F5F5E2E2F5E2E2E2E2E2E2F5E2E2E2E2E2E2E2E2E2
310
E2E2E2E2E2E2E2E2E2E2E2E2E2E2E2E2E2E2E2E2E2E2E2E2E2E2E2E2E2E2E2E2E2E2E2E2E2E2E2E2E2E2E2E2E2E2E2E2E2E2E2E2E2E2E2E2E2E2E2E2E2E2E2E2E2E2E2E2E2E2E2E2E2E2E2E2E2E2E2E2E2E2E2E2E2E2E2E2E2E2E2E2E2E2E2E2E2E2F5E2E2F5E2E20FE2F5C3E20FBABAC3BABA28F50FBABABAC3BAC30FE2E2
310
C3E2C30FE2E2E2C3C3C3F5E2E2E2E2E2E2E2E2E2E2E2E2E2E2E2F5E2F5C3E2E20FE2C3C3E20FE2E2C3E2E20FE2F5C3E2F5F5E2E2F5E2E2E2E2E2E2F5E2E2E2E2E2E2E2E2E2E2E2E2E2E2E2E2E2E2E2E2E2E2E2E2E2E2E2E2E2E2E2E2E2E2E2E2E2E2E2E2E2E2E2E2E2E2E2E2E2E2E2E2E2E2E2E2E2E2E2E2E2E2E2E2E2E2E2
310
E2E2E2E2E2E2E2E2E2E2E2E2E2E2E2E2E2E2E2E2E2E2E2E2E2E2E2E2E2E2E2E2E2E2E2E2E2E2E2E2F5C3C3C3C3C3C3C3C3C3C3C3C3C3C3C3C3F5F50FC3C3C3BABA0F0FC3C3C3E2E20FC3C3F5F5E2E2F5E2E2E2E2E2E2E2E2E2E2E2E2E2E2E2F5C3C3C3C3C3C3C3C3C3C3C3C3C3C3C3C3C3C3C3C3C3F5F5E2E2F5E2E2E2E2E2
310
E2F5E2E2E2E2E2E2E2E2E2E2E2E2E2E2E2E2E2E2E2E2E2E2E2E2E2E2E2E2E2E2E2E2E2E2E2E2E2E2E2E2E2E2E2E2E2E2E2E2E2E2E2E2E2E2E2E2E2E2E2E2E2E2E2E2E2E2E2E2E2E2E2E2E2E2E2E2E2E2E2E2E2E2E2E2E2E2E2E2E2E2E2E2E2E2E2E2E2E2E2E2E2E2E2E2E2E2E2F5E2E2F5E2E20FE2E2F5E20FBABAC3BABA28
310
0FBABABAC3BABA0FE2E2C3C3E20FE2E2E2C3C3E2F5E2E2E2E2E2E2E2E2E2E2E2E2E2E2E2E2F5E2E2F5E2E20FE2C3C3E20FE2E2C3E2E20FE2E2F5E2F5F5E2E2F5E2E2E2E2E2E2F5E2E2E2E2E2E2E2E2E2E2E2E2E2E2E2E2E2E2E2E2E2E2E2E2E2E2E2E2E2E2E2E2E2E2E2E2E2E2E2E2E2E2E2E2E2E2E2E2E2E2E2E2E2E2E2E2
310
E2E2E2E2E2E2E2E2E2E2E2E2E2E2E2E2E2E2E2E2E2E2E2E2E2E2E2E2E2E2E2E2E2E2E2E2E2E2E2E2E2E2E2E2E2E2E2E2E2E2E2F5E2E2F5E2E20FE2F5C3E20FBABAC3BABAF50FC3BAC3BAC30FE2E2C3E2E2C30FE2E2F5F5E2C3F5E2E2E2E2E2E2E2E2E2E2E2E2E2E2E2E2F5E2F5C3E2E20FE2C3C3E20FE2E2C3E2E20FE2F5C3
310
E2F5F5E2E2F5E2E2E2E2E2E2F5E2E2E2E2E2E2E2E2E2E2E2E2E2E2E2E2E2E2E2E2E2E2E2E2E2E2E2E2E2E2E2E2E2E2E2E2E2E2E2E2E2E2E2E2E2E2E2E2E2E2E2E2E2E2E2E2E2E2E2E2E2E2E2E2E2E2E2E2E2E2E2E2E2E2E2E2E2E2E2E2E2E2E2E2E2E2E2E2E2E2E2E2E2E2E2E2E2E2E2E2E2E2E2E2E2E2E2F5C3C3C3C3C3C3
310
C3C3C3C3C3C3C3C3C3C328BABAC3C3BA0F0FC3C3C3E2E20FE2C3C3C3E2E2F5E2E2E2E2E2E2E2E2E2E2E2E2E2E2E2E2E2F5C3C3C3C3C3C3C3C3C3C3C3C3C3C3C3C3C3C3C3C3C3F5F5E2E2F5E2E2E2E2E2E2F5E2E2E2E2E2E2E2E2E2E2E2E2E2E2E2E2E2E2E2E2E2E2E2E2E2E2E2E2E2E2E2E2E2E2E2E2E2E2E2E2E2E2E2E2E2
310
E2E2E2E2E2E2E2E2E2E2E2E2E2E2E2E2E2E2E2E2E2E2E2E2E2E2E2E2E2E2E2E2E2E2E2E2E2E2E2E2E2E2E2E2E2E2E2E2E2E2E2E2E2E2E2E2E2E2E2E2E2E2F5E2E2F5E2E20FE2E2F5E20FBABAC3BABA28F5BAC3BAC30FE2E2C3C3C3E20FE2E2C3C3C3E2F5E2E2E2E2E2E2E2E2E2E2E2E2E2E2E2E2E2F5E2E2F5E2E20FE2C3C3
310
E20FE2E2C3E2E20FE2E2F5E2F5F5E2E2F5E2E2E2E2E2E2F5E2E2E2E2E2E2E2E2E2E2E2E2E2E2E2E2E2E2E2E2E2E2E2E2E2E2E2E2E2E2E2E2E2E2E2E2E2E2E2E2E2E2E2E2E2E2E2E2E2E2E2E2E2E2E2E2E2E2E2E2E2E2E2E2E2E2E2E2E2E2E2E2E2E2E2E2E2E2E2E2E2E2E2E2E2E2E2E2E2E2E2E2E2E2E2E2E2E2E2E2E2E2E2
310
E2E2E2E2F5E2E2F5E2E20FE2F5C3E20FBABAC3BABA28BAC3BABA0F0FC3C3C3E2E20FE2E2F5F5E2E2F5E2E2E2E2E2E2E2E2E2E2E2E2E2E2E2E2E2E2F5E2F5C3E2E20FE2C3C3E20FE2E2C3E2E20FE2F5C3E2F5F5E2E2F5E2E2E2E2E2E2F5E2E2E2E2E2E2E2E2E2E2E2E2E2E2E2E2E2E2E2E2E2E2E2E2E2E2E2E2E2E2E2E2E2E2
310
E2E2E2E2E2E2E2E2E2E2E2E2E2E2E2E2E2E2E2E2E2E2E2E2E2E2E2E2E2E2E2E2E2E2E2E2E2E2E2E2E2E2E2E2E2E2E2E2E2E2E2E2E2E2E2E2E2E2E2E2E2E2E2E2E2E2E2E2E2E2E2E2E2F5C3C3C3C3C3C3C3C3C3C3C3C3C3C3C3C3F5F5C3BABA0FE2E2C3C3E20FE2C3C3C3E2E2E2F5E2E2E2E2E2E2E2E2E2E2E2E2E2E2E2E2E2
310
E2F5C3C3C3C3C3C3C3C3C3C3C3C3C3C3C3C3C3C3C3C3C3F5F5E2E2F5E2E2E2E2E2E2F5E2E2E2E2E2E2E2E2E2E2E2E2E2E2E2E2E2E2E2E2E2E2E2E2E2E2E2E2E2E2E2E2E2E2E2E2E2E2E2E2E2E2E2E2E2E2E2E2E2E2E2E2E2E2E2E2E2E2E2E2E2E2E2E2E2E2E2E2E2E2E2E2E2E2E2E2E2E2E2E2E2E2E2E2E2E2E2E2E2E2E2E2
310
E2E2E2E2E2E2E2E2E2E2E2E2E2E2E2F5E2E2F5E2E20FE2E2F5E20FBABAC3BABA28C3BAC30F0FE2E2C3E2C30FE2E2C3C3C3E2F5E2E2E2E2E2E2E2E2E2E2E2E2E2E2E2E2E2E2E2F5E2E2F5E2E20FE2C3C3E20FE2E2C3E2E20FE2E2F5E2F5F5E2E2F5E2E2E2E2E2E2F5E2E2E2E2E2E2E2E2E2E2E2E2E2E2E2E2E2E2E2E2E2E2E2
310
E2E2E2E2E2E2E2E2E2E2E2E2E2E2E2E2E2E2E2E2E2E2E2E2E2E2E2E2E2E2E2E2E2E2E2E2E2E2E2E2E2E2E2E2E2E2E2E2E2E2E2E2E2E2E2E2E2E2E2E2E2E2E2E2E2E2E2E2E2E2E2E2E2E2E2E2E2E2E2E2E2E2E2E2F5E2E2F5E2E20FE2F5C3E20FBABAC3BABA28C3BA0F0FC3C3C3E2E20FE2C3C3F5F5E2F5E2E2E2E2E2E2E2E2
310
E2E2E2E2E2E2E2E2E2E2E2E2F5E2F5C3E2E20FE2C3C3E20FE2E2C3E2E20FE2F5C3E2F5F5E2E2F5E2E2E2E2E2E2F5E2E2E2E2E2E2E2E2E2E2E2E2E2E2E2E2E2E2E2E2E2E2E2E2E2E2E2E2E2E2E2E2E2E2E2E2E2E2E2E2E2E2E2E2E2E2E2E2E2E2E2E2E2E2E2E2E2E2E2E2E2E2E2E2E2E2E2E2E2E2E2E2E2E2E2E2E2E2E2E2E2
310
E2E2E2E2E2E2E2E2E2E2E2E2E2E2E2E2E2E2E2E2E2E2E2E2E2E2F5C3C3C3C3C3C3C3C3C3C3C3C3C3C3C3C328C3C30FBAE2C3C3E2E20FE2E2C3C3C3E2F5E2E2E2E2E2E2E2E2E2E2E2E2E2E2E2E2E2E2E2E2F5C3C3C3C3C3C3C3C3C3C3C3C3C3C3C3C3C3C3C3C3C3F5F5E2E2F5E2E2E2E2E2E2F5E2E2E2E2E2E2E2E2E2E2E2E2
310
E2E2E2E2E2E2E2E2E2E2E2E2E2E2E2E2E2E2E2E2E2E2E2E2E2E2E2E2E2E2E2E2E2E2E2E2E2E2E2E2E2E2E2E2E2E2E2E2E2E2E2E2E2E2E2E2E2E2E2E2E2E2E2E2E2E2E2E2E2E2E2E2E2E2E2E2E2E2E2E2E2E2E2E2E2E2E2E2E2E2E2E2E2E2E2F5E2E2F5E2E20FE2E2F5E20FBABAC3BABA28F50F0FC3E2C3E2C30FE2E2F5F5E2
310
E2F5E2E2E2E2E2E2E2E2E2E2E2E2E2E2E2E2E2E2E2E2E2F5E2E2F5E2E20FE2C3C3E20FE2E2C3E2E20FE2E2F5E2F5F5E2E2F5E2E2E2E2E2E2F5E2E2E2E2E2E2E2E2E2E2E2E2E2E2E2E2E2E2E2E2E2E2E2E2E2E2E2E2E2E2E2E2E2E2E2E2E2E2E2E2E2E2E2E2E2E2E2E2E2E2E2E2E2E2E2E2E2E2E2E2E2E2E2E2E2E2E2E2E2E2
310
E2E2E2E2E2E2E2E2E2E2E2E2E2E2E2E2E2E2E2E2E2E2E2E2E2E2E2E2E2E2E2E2E2E2E2E2E2F5E2E2F5E2E20FE2F5C3E20FBABAC3BABA28F50FBAE2C3E2E2E20FC3C3C3E2E2E2F5E2E2E2E2E2E2E2E2E2E2E2E2E2E2E2E2E2E2E2E2E2F5E2F5C3E2E20FE2C3C3E20FE2E2C3E2E20FE2F5C3E2F5F5E2E2F5E2E2E2E2E2E2F5E2
310
E2E2E2E2E2E2E2E2E2E2E2E2E2E2E2E2E2E2E2E2E2E2E2E2E2E2E2E2E2E2E2E2E2E2E2E2E2E2E2E2E2E2E2E2E2E2E2E2E2E2E2E2E2E2E2E2E2E2E2E2E2E2E2E2E2E2E2E2E2E2E2E2E2E2E2E2E2E2E2E2E2E2E2E2E2E2E2E2E2E2E2E2E2E2E2E2E2E2E2E2E2E2E2E2E2E2F5C3C3C3C3C3C3C3C3C3C3C3C3C3C3C3C3280F0FE2
310
E2C3C3C30FE2E2C3C3C3E2F5E2E2E2E2E2E2E2E2E2E2E2E2E2E2E2E2E2E2E2E2E2E2F5C3C3C3C3C3C3C3C3C3C3C3C3C3C3C3C3C3C3C3C3C3F5F5E2E2F5E2E2E2E2E2E2F5E2E2E2E2E2E2E2E2E2E2E2E2E2E2E2E2E2E2E2E2E2E2E2E2E2E2E2E2E2E2E2E2E2E2E2E2E2E2E2E2E2E2E2E2E2E2E2E2E2E2E2E2E2E2E2E2E2E2E2
310
E2E2E2E2E2E2E2E2E2E2E2E2E2E2E2E2E2E2E2E2E2E2E2E2E2E2E2E2E2E2E2E2E2E2E2E2E2E2E2E2E2E2E2E2E2E2E2E2F5E2E2F5E2E20FE2E2F5E20FE2BAC3BABAF5F5C3E2C3E2E20FC3E2E2F5F5E2C3F5E2E2E2E2E2E2E2E2E2E2E2E2E2E2E2E2E2E2E2E2E2E2F5E2E2F5E2E20FE2C3C3E20FE2E2C3E2E20FE2E2F5E2F5F5
310
E2E2F5E2E2E2E2E2E2F5E2E2E2E2E2E2E2E2E2E2E2E2E2E2E2E2E2E2E2E2E2E2E2E2E2E2E2E2E2E2E2E2E2E2E2E2E2E2E2E2E2E2E2E2E2E2E2E2E2E2E2E2E2E2E2E2E2E2E2E2E2E2E2E2E2E2E2E2E2E2E2E2E2E2E2E2E2E2E2E2E2E2E2E2E2E2E2E2E2E2E2E2E2E2E2E2E2E2E2E2E2E2E2E2E2E2E2F5E2E2F5E2E20FE2F5C3
310
E20FE2E2C3BAE2280FF5C3C3E2E20FE2C3C3E2E2E2F5E2E2E2E2E2E2E2E2E2E2E2E2E2E2E2E2E2E2E2E2E2E2E2F5E2F5C3E2E20FE2C3C3E20FE2E2C3E2E20FE2F5C3E2F5F5E2E2F5E2E2E2E2E2E2F5E2E2E2E2E2E2E2E2E2E2E2E2E2E2E2E2E2E2E2E2E2E2E2E2E2E2E2E2E2E2E2E2E2E2E2E2E2E2E2E2E2E2E2E2E2E2E2E2
310
E2E2E2E2E2E2E2E2E2E2E2E2E2E2E2E2E2E2E2E2E2E2E2E2E2E2E2E2E2E2E2E2E2E2E2E2E2E2E2E2E2E2E2E2E2E2E2E2E2E2E2E2E2E2E2E2E2E2E2F5C3C3C3C3C3C3C3C3C3C3C3C3C3C3C3C328E2F5C3E2C30FE2E2E2C3C3C3F5E2E2E2E2E2E2E2E2E2E2E2E2E2E2E2E2E2E2E2E2E2E2E2E2F5C3C3C3C3C3C3C3C3C3C3C3C3
310
C3C3C3C3C3C3C3C3C3F5F5E2E2F5E2E2E2E2E2E2F5E2E2E2E2E2E2E2E2E2E2E2E2E2E2E2E2E2E2E2E2E2E2E2E2E2E2E2E2E2E2E2E2E2E2E2E2E2E2E2E2E2E2E2E2E2E2E2E2E2E2E2E2E2E2E2E2E2E2E2E2E2E2E2E2E2E2E2E2E2E2E2E2E2E2E2E2E2E2E2E2E2E2E2E2E2E2E2E2E2E2E2E2E2E2E2E2E2E2E2E2E2E2E2E2E2E2
310
E2F5E2E2F5E2E20FE2E2F5E20FE2E2C3E2E228C3C3E2E2E20FC3C3F5F5E2E2F5E2E2E2E2E2E2E2E2E2E2E2E2E2E2E2E2E2E2E2E2E2E2E2E2F5E2E2F5E2E20FE2C3C3E20FE2E2C3E2E20FE2E2F5E2F5F5E2E2F5E2E2E2E2E2E2F5E2E2E2E2E2E2E2E2E2E2E2E2E2E2E2E2E2E2E2E2E2E2E2E2E2E2E2E2E2E2E2E2E2E2E2E2E2
310
E2E2E2E2E2E2E2E2E2E2E2E2E2E2E2E2E2E2E2E2E2E2E2E2E2E2E2E2E2E2E2E2E2E2E2E2E2E2E2E2E2E2E2E2E2E2E2E2E2E2E2E2E2E2E2E2E2E2E2E2E2E2E2E2E2E2E2E2E2E2F5E2E2F5E2E20FE2F5C3E20FE2E2C3E2E228F5C3C3C30FE2E2E2C3C3E2F5E2E2E2E2E2E2E2E2E2E2E2E2E2E2E2E2E2E2E2E2E2E2E2E2E2F5E2
310
F5C3E2E20FE2C3C3E20FE2E2C3E2E20FE2F5C3E2F5F5E2E2F5E2E2E2E2E2E2F5E2E2E2E2E2E2E2E2E2E2E2E2E2E2E2E2E2E2E2E2E2E2E2E2E2E2E2E2E2E2E2E2E2E2E2E2E2E2E2E2E2E2E2E2E2E2E2E2E2E2E2E2E2E2E2E2E2E2E2E2E2E2E2E2E2E2E2E2E2E2E2E2E2E2E2E2E2E2E2E2E2E2E2E2E2E2E2E2E2E2E2E2E2E2E2
310
E2E2E2E2E2E2E2E2E2E2E2E2F5C3C3C3C3C3C3C3C3C3C3C3C3C3C3C3C328F5E2E2E20FE2E2F5F5E2C3F5E2E2E2E2E2E2E2E2E2E2E2E2E2E2E2E2E2E2E2E2E2E2E2E2E2F5C3C3C3C3C3C3C3C3C3C3C3C3C3C3C3C3C3C3C3C3C3F5F5E2E2F5E2E2E2E2E2E2F5E2E2E2E2E2E2E2E2E2E2E2E2E2E2E2E2E2E2E2E2E2E2E2E2E2E2
310
E2E2E2E2E2E2E2E2E2E2E2E2E2E2E2E2E2E2E2E2E2E2E2E2E2E2E2E2E2E2E2E2E2E2E2E2E2E2E2E2E2E2E2E2E2E2E2E2E2E2E2E2E2E2E2E2E2E2E2E2E2E2E2E2E2E2E2E2E2E2E2E2E2E2E2E2E2E2E2E2E2F5E2E2F5E2E20FE2E2F5E20FE2E2C3E2E2F5C3E2E20FE2C3C3E2E2E2F5E2E2E2E2E2E2E2E2E2E2E2E2E2E2E2E2E2
310
E2E2E2E2E2E2E2E2E2F5E2E2F5E2E20FE2C3C3E20FE2E2C3E2E20FE2E2F5E2F5F5E2E2F5E2E2E2E2E2E2F5E2E2E2E2E2E2E2E2E2E2E2E2E2E2E2E2E2E2E2E2E2E2E2E2E2E2E2E2E2E2E2E2E2E2E2E2E2E2E2E2E2E2E2E2E2E2E2E2E2E2E2E2E2E2E2E2E2E2E2E2E2E2E2E2E2E2E2E2E2E2E2E2E2E2E2E2E2E2E2E2E2E2E2E2
310
E2E2E2E2E2E2E2E2E2E2E2E2E2E2E2E2E2E2E2E2E2E2E2F5E2E2F5E2E20FE2F5C3E20FE2E2C3E2E2F5C3C30FE2E2E2C3C3C3E2F5E2E2E2E2E2E2E2E2E2E2E2E2E2E2E2E2E2E2E2E2E2E2E2E2E2E2F5E2F5C3E2E20FE2C3C3E20FE2E2C3E2E20FE2F5C3E2F5F5E2E2F5E2E2E2E2E2E2F5E2E2E2E2E2E2E2E2E2E2E2E2E2E2E2
310
E2E2E2E2E2E2E2E2E2E2E2E2E2E2E2E2E2E2E2E2E2E2E2E2E2E2E2E2E2E2E2E2E2E2E2E2E2E2E2E2E2E2E2E2E2E2E2E2E2E2E2E2E2E2E2E2E2E2E2E2E2E2E2E2E2E2E2E2E2E2E2E2E2E2E2E2E2E2E2E2E2E2E2E2E2E2E2E2E2E2E2E2F5C3C3C3C3C3C3C3C3C3C3C3C3C3C3C3C328E2F50FC3E2F5F5E2E2F5E2E2E2E2E2E2E2
310
E2E2E2E2E2E2E2E2E2E2E2E2E2E2E2E2E2E2E2E2F5C3C3C3C3C3C3C3C3C3C3C3C3C3C3C3C3C3C3C3C3C3F5F5E2E2F5E2E2E2E2E2E2F5E2E2E2E2E2E2E2E2E2E2E2E2E2E2E2E2E2E2E2E2E2E2E2E2E2E2E2E2E2E2E2E2E2E2E2E2E2E2E2E2E2E2E2E2E2E2E2E2E2E2E2E2E2E2E2E2E2E2E2E2E2E2E2E2E2E2E2E2E2E2E2E2E2
310
E2E2E2E2E2E2E2E2E2E2E2E2E2E2E2E2E2E2E2E2E2E2E2E2E2E2E2E2E2E2E2E2E2E2F5E2E2F5E2E20FE2E2F5E20FE2E2C3E2E228E2F5E2E2C3C3E2E2F5E2E2E2E2E2E2E2E2E2E2E2E2E2E2E2E2E2E2E2E2E2E2E2E2E2E2E2E2F5E2E2F5E2E20FE2C3C3E20FE2E2C3E2E20FE2E2F5E2F5F5E2E2F5E2E2E2E2E2E2F5E2E2E2E2
310
E2E2E2E2E2E2E2E2E2E2E2E2E2E2E2E2E2E2E2E2E2E2E2E2E2E2E2E2E2E2E2E2E2E2E2E2E2E2E2E2E2E2E2E2E2E2E2E2E2E2E2E2E2E2E2E2E2E2E2E2E2E2E2E2E2E2E2E2E2E2E2E2E2E2E2E2E2E2E2E2E2E2E2E2E2E2E2E2E2E2E2E2E2E2E2E2E2E2E2E2E2E2E2F5E2E2F5E2E20FE2F5C3E20FE2E2C3E2E228C30FE2E2F5F5
310
C3F5E2E2E2E2E2E2E2E2E2E2E2E2E2E2E2E2E2E2E2E2E2E2E2E2E2E2E2E2E2F5E2F5C3E2E20FE2C3C3E20FE2E2C3E2E20FE2F5C3E2F5F5E2E2F5E2E2E2E2E2E2F5E2E2E2E2E2E2E2E2E2E2E2E2E2E2E2E2E2E2E2E2E2E2E2E2E2E2E2E2E2E2E2E2E2E2E2E2E2E2E2E2E2E2E2E2E2E2E2E2E2E2E2E2E2E2E2E2E2E2E2E2E2E2
310
E2E2E2E2E2E2E2E2E2E2E2E2E2E2E2E2E2E2E2E2E2E2E2E2E2E2E2E2E2E2E2E2E2E2E2E2E2E2E2E2E2E2E2E2E2F5C3C3C3C3C3C3C3C3C3C3C3C3C3C3C3C3F5F5E2C3C3F5F5E2F5E2E2E2E2E2E2E2E2E2E2E2E2E2E2E2E2E2E2E2E2E2E2E2E2E2E2E2E2E2F5C3C3C3C3C3C3C3C3C3C3C3C3C3C3C3C3C3C3C3C3C3F5F5E2E2F5
310
E2E2E2E2E2E2F5E2E2E2E2E2E2E2E2E2E2E2E2E2E2E2E2E2E2E2E2E2E2E2E2E2E2E2E2E2E2E2E2E2E2E2E2E2E2E2E2E2E2E2E2E2E2E2E2E2E2E2E2E2E2E2E2E2E2E2E2E2E2E2E2E2E2E2E2E2E2E2E2E2E2E2E2E2E2E2E2E2E2E2E2E2E2E2E2E2E2E2E2E2E2E2E2E2E2E2E2E2E2E2E2E2E2E2F5E2E2F5E2E20FE2E2F5E20FE2
310
E2C3E2E2280FE2E2C3C3C3F5E2E2E2E2E2E2E2E2E2E2E2E2E2E2E2E2E2E2E2E2E2E2E2E2E2E2E2E2E2E2F5E2E2F5E2E20FE2C3C3E20FE2E2C3E2E20FE2E2F5E2F5F5E2E2F5E2E2E2E2E2E2F5E2E2E2E2E2E2E2E2E2E2E2E2E2E2E2E2E2E2E2E2E2E2E2E2E2E2E2E2E2E2E2E2E2E2E2E2E2E2E2E2E2E2E2E2E2E2E2E2E2E2E2
310
E2E2E2E2E2E2E2E2E2E2E2E2E2E2E2E2E2E2E2E2E2E2E2E2E2E2E2E2E2E2E2E2E2E2E2E2E2E2E2E2E2E2E2E2E2E2E2E2E2E2E2E2E2E2E2E2F5E2E2F5E2E20FE2F5F5E20FE2E2C3E2E228E2E2F5F5E2E2F5E2E2E2E2E2E2E2E2E2E2E2E2E2E2E2E2E2E2E2E2E2E2E2E2E2E2E2E2E2E2F5E2F5F5E2E20FE2C3C3E20FE2E2C3E2
310
E20FE2F5F5E2F5F5E2E2F5E2E2E2E2E2E2F5E2E2E2E2E2E2E2E2E2E2E2E2E2E2E2E2E2E2E2E2E2E2E2E2E2E2E2E2E2E2E2E2E2E2E2E2E2E2E2E2E2E2E2E2E2E2E2E2E2E2E2E2E2E2E2E2E2E2E2E2E2E2E2E2E2E2E2E2E2E2E2E2E2E2E2E2E2E2E2E2E2E2E2E2E2E2E2E2E2E2E2E2E2E2E2E2E2E2E2E2E2E2E2E2E2E2E2F5C3
310
C3C3C3C30FF50F0F0F0FC3C3C3C3C328C3C3C3E2E2F5F5E2E2E2E2E2E2E2E2E2E2E2E2E2E2E2E2E2E2E2E2E2E2E2E2E2E2E2E2E2E2F5C3C3C3C3C3C3C3C3C3C3C3C3C3C3C3C3C3C3C3C3C3F5F5E2E2F5E2E2E2E2E2E2F5E2E2E2E2E2E2E2E2E2E2E2E2E2E2E2E2E2E2E2E2E2E2E2E2E2E2E2E2E2E2E2E2E2E2E2E2E2E2E2E2
310
E2E2E2E2E2E2E2E2E2E2E2E2E2E2E2E2E2E2E2E2E2E2E2E2E2E2E2E2E2E2E2E2E2E2E2E2E2E2E2E2E2E2E2E2E2E2E2E2E2E2E2E2E2E2E2E2E2E2E2E2E2E2E2E2E2E2E2F5E2E2F5E2F5F5E2E2F5E20FE2E2C3E2E228F5F5C3C3E2F5E2E2E2E2E2E2E2E2E2E2E2E2E2E2E2E2E2E2E2E2E2E2E2E2E2E2E2E2E2E2E2F5E2E2F5E2
310
E20FE2C3C3E20FE2E2C3E2E20FE2E2F5E2F5F5E2E2F5E2E2E2E2E2E2F5E2E2E2E2E2E2E2E2E2E2E2E2E2E2E2E2E2E2E2E2E2E2E2E2E2E2E2E2E2E2E2E2E2E2E2E2E2E2E2E2E2E2E2E2E2E2E2E2E2E2E2E2E2E2E2E2E2E2E2E2E2E2E2E2E2E2E2E2E2E2E2E2E2E2E2E2E2E2E2E2E2E2E2E2E2E2E2E2E2E2E2E2E2E2E2E2E2E2
310
E2E2E2E2E2E2E2E2E2F5E2E2F5F5F5F5E2F5F5E20FE2E2C3E2E228E2F5F5E2F5F5E2E2E2E2E2E2E2E2E2E2E2E2E2E2E2E2E2E2E2E2E2E2E2E2E2E2E2E2E2E2E2F5E2F5F5E2E20FE2C3C3E20FE2E2C3E2E20FE2F5F5E2F5F5E2E2F5E2E2E2E2E2E2F5E2E2E2E2E2E2E2E2E2E2E2E2E2E2E2E2E2E2E2E2E2E2E2E2E2E2E2E2E2
310
E2E2E2E2E2E2E2E2E2E2E2E2E2E2E2E2E2E2E2E2E2E2E2E2E2E2E2E2E2E2E2E2E2E2E2E2E2E2E2E2E2E2E2E2E2E2E2E2E2E2E2E2E2E2E2E2E2E2E2E2E2E2E2E2E2E2E2E2E2E2E2E2E2E2E2E2E2E2F5C3C3C3F5F5C3C3C3C3C3C3C3C3C3C3C3F5F5C3E2E2F5E2E2E2E2E2E2E2E2E2E2E2E2E2E2E2E2E2E2E2E2E2E2E2E2E2E2
310
E2E2E2E2E2E2F5C3C3C3C3C3C3C3C3C3C3C3C3C3C3C3C3C3C3C3C3C3F5F5E2E2F5E2E2E2E2E2E2F5E2E2E2E2E2E2E2E2E2E2E2E2E2E2E2E2E2E2E2E2E2E2E2E2E2E2E2E2E2E2E2E2E2E2E2E2E2E2E2E2E2E2E2E2E2E2E2E2E2E2E2E2E2E2E2E2E2E2E2E2E2E2E2E2E2E2E2E2E2E2E2E2E2E2E2E2E2E2E2E2E2E2E2E2E2E2E2
310
E2E2E2E2E2E2E2E2E2E2E2E2E2E2E2E2E2E2E2E2F5E2E2F5E2E20FE2E2C3E20FE2E2C3E2E2F5F5C3C3F5F5E2E2E2E2E2E2E2E2E2E2E2E2E2E2E2E2E2E2E2E2E2E2E2E2E2E2E2E2E2E2E2E2F5E2E2C3E2E20FE2C3C3E20FE2E2C3E2E20FE2E2C3E2F5F5E2E2F5E2E2E2E2E2E2F5E2E2E2E2E2E2E2E2E2E2E2E2E2E2E2E2E2E2
310
E2E2E2E2E2E2E2E2E2E2E2E2E2E2E2E2E2E2E2E2E2E2E2E2E2E2E2E2E2E2E2E2E2E2E2E2E2E2E2E2E2E2E2E2E2E2E2E2E2E2E2E2E2E2E2E2E2E2E2E2E2E2E2E2E2E2E2E2E2E2E2E2E2E2E2E2E2E2E2E2E2E2E2E2E2E2E2E2E2F5E2F5F5E2E20FE2F5F5E20FE2E2C3E2E228E2F5F5F5E2E2E2E2E2E2E2E2E2E2E2E2E2E2E2E2
310
E2E2E2E2E2E2E2E2E2E2E2E2E2E2E2E2E2F5E2F5F5E2E20FE2C3C3E20FE2E2C3E2E20FE2F5F5E2F5F5E2E2F5E2E2E2E2E2E2F5E2E2E2E2E2E2E2E2E2E2E2E2E2E2E2E2E2E2E2E2E2E2E2E2E2E2E2E2E2E2E2E2E2E2E2E2E2E2E2E2E2E2E2E2E2E2E2E2E2E2E2E2E2E2E2E2E2E2E2E2E2E2E2E2E2E2E2E2E2E2E2E2E2E2E2E2
310
E2E2E2E2E2E2E2E2E2E2E2E2E2E2E2E2E2E2E2E2E2E2E2E2E2E2E2E2E2E2E2F5F5C3C3C3C3C3C3C3C3C3C3C3C3C3C3C328C3E2F5F5E2E2E2E2E2E2E2E2E2E2E2E2E2E2E2E2E2E2E2E2E2E2E2E2E2E2E2E2E2E2E2E2E2F5C3C3C3C3C3C3C3C3C3C3C3C3C3C3C3C3C3C3C3C3C3F5F5E2E2F5E2E2E2E2E2E2F5E2E2E2E2E2E2E2
310
E2E2E2E2E2E2E2E2E2E2E2E2E2E2E2E2E2E2E2E2E2E2E2E2E2E2E2E2E2E2E2E2E2E2E2E2E2E2E2E2E2E2E2E2E2E2E2E2E2E2E2E2E2E2E2E2E2E2E2E2E2E2E2E2E2E2E2E2E2E2E2E2E2E2E2E2E2E2E2E2E2E2E2E2E2E2E2E2E2E2E2E2E2E2E2E2E2E2E2F5F5E2E2C3E2E20FE2E2C3E20FE2E2C3E2E228F5C3F5E2E2E2E2E2E2
310
E2E2E2E2E2E2E2E2E2E2E2E2E2E2E2E2E2E2E2E2E2E2E2E2E2E2E2E2F5E2E2C3E2E20FE2C3C3E20FE2E2C3E2E20FE2E2C3E2F5F5E2E2F5E2E2E2E2E2E2F5E2E2E2E2E2E2E2E2E2E2E2E2E2E2E2E2E2E2E2E2E2E2E2E2E2E2E2E2E2E2E2E2E2E2E2E2E2E2E2E2E2E2E2E2E2E2E2E2E2E2E2E2E2E2E2E2E2E2E2E2E2E2E2E2E2
310
E2E2E2E2E2E2E2E2E2E2E2E2E2E2E2E2E2E2E2E2E2E2E2E2E2E2E2E2E2E2E2E2E2E2E2E2E2E2E2E2F5E2F5E2E2F5E2E20FE2F5F5E20FE2E2C3E2E228F5C3F5E2E2E2E2E2E2E2E2E2E2E2E2E2E2E2E2E2E2E2E2E2E2E2E2E2E2E2E2E2E2E2E2E2E2F5E2F5F5E2E20FE2C3C3E20FE2E2C3E2E20FE2F5F5E2F5F5E2E2F5E2E2E2
310
E2E2E2F5E2E2E2E2E2E2E2E2E2E2E2E2E2E2E2E2E2E2E2E2E2E2E2E2E2E2E2E2E2E2E2E2E2E2E2E2E2E2E2E2E2E2E2E2E2E2E2E2E2E2E2E2E2E2E2E2E2E2E2E2E2E2E2E2E2E2E2E2E2E2E2E2E2E2E2E2E2E2E2E2E2E2E2E2E2E2E2E2E2E2E2E2E2E2E2E2E2E2E2E2E2E2E2E2F5E2E2F5C3C3C3C3C3C3C3C3C3C3C3C3C3C3C3
310
C328C3F5E2E2E2E2E2E2E2E2E2E2E2E2E2E2E2E2E2E2E2E2E2E2E2E2E2E2E2E2E2E2E2E2E2E2E2F5C3C3C3C3C3C3C3C3C3C3C3C3C3C3C3C3C3C3C3C3C3F5F5E2E2F5E2E2E2E2E2E2F5E2E2E2E2E2E2E2E2E2E2E2E2E2E2E2E2E2E2E2E2E2E2E2E2E2E2E2E2E2E2E2E2E2E2E2E2E2E2E2E2E2E2E2E2E2E2E2E2E2E2E2E2E2E2
310
E2E2E2E2E2E2E2E2E2E2E2E2E2E2E2E2E2E2E2E2E2E2E2E2E2E2E2E2E2E2E2E2E2E2E2E2E2E2E2E2E2E2E2E2E2E2E2E2E2F5E2E2E2F5E2E2C3E2E20FE2E2C3E20FE2E2C3E2E2F5F5F5E2E2E2E2E2E2E2E2E2E2E2E2E2E2E2E2E2E2E2E2E2E2E2E2E2E2E2E2E2E2E2E2E2E2E2F5E2E2C3E2E20FE2C3C3E20FE2E2C3E2E20FE2
310
E2C3E2F5F5E2E2F5E2E2E2E2E2E2F5E2E2E2E2E2E2E2E2E2E2E2E2E2E2E2E2E2E2E2E2E2E2E2E2E2E2E2E2E2E2E2E2E2E2E2E2E2E2E2E2E2E2E2E2E2E2E2E2E2E2E2E2E2E2E2E2E2E2E2E2E2E2E2E2E2E2E2E2E2E2E2E2E2E2E2E2E2E2E2E2E2E2E2E2E2E2E2E2E2E2E2E2E2E2E2E2E2E2E2E2E2E2F5E2E2E2E2F5E2E2F5E2
310
E20FE2F5F5E20FE2E2C3E2E228F5F5E2E2E2E2E2E2E2E2E2E2E2E2E2E2E2E2E2E2E2E2E2E2E2E2E2E2E2E2E2E2E2E2E2E2E2F5E2F5F5E2E20FE2C3C3E20FE2E2C3E2E20FE2F5F5E2F5F5E2E2F5E2E2E2E2E2E2F5E2E2E2E2E2E2E2E2E2E2E2E2E2E2E2E2E2E2E2E2E2E2E2E2E2E2E2E2E2E2E2E2E2E2E2E2E2E2E2E2E2E2E2
310
E2E2E2E2E2E2E2E2E2E2E2E2E2E2E2E2E2E2E2E2E2E2E2E2E2E2E2E2E2E2E2E2E2E2E2E2E2E2E2E2E2E2E2E2E2E2E2E2E2E2E2E2E2E2E2E2E2E2F5E2E2E2E2E2F5C3C3C3C3C3C3C3C3C3C3C3C3C3C3C3C328F5E2E2E2E2E2E2E2E2E2E2E2E2E2E2E2E2E2E2E2E2E2E2E2E2E2E2E2E2E2E2E2E2E2E2E2E2F5C3C3C3C3C3C3C3
310
C3C3C3C3C3C3C3C3C3C3C3C3C3C3F5F5E2E2F5E2E2E2E2E2E2F5E2E2E2E2E2E2E2E2E2E2E2E2E2E2E2E2E2E2E2E2E2E2E2E2E2E2E2E2E2E2E2E2E2E2E2E2E2E2E2E2E2E2E2E2E2E2E2E2E2E2E2E2E2E2E2E2E2E2E2E2E2E2E2E2E2E2E2E2E2E2E2E2E2E2E2E2E2E2E2E2E2E2E2E2E2E2E2E2E2E2E2E2E2E2E2E2E2E2E2E2F5
310
E2E2E2E2E2E2F5E2E2C3E2E20FE2E2C3E20FE2E2C3E2E2F5F5E2E2E2E2E2E2E2E2E2E2E2E2E2E2E2E2E2E2E2E2E2E2E2E2E2E2E2E2E2E2E2E2E2E2E2E2F5E2E2C3E2E20FE2C3C3E20FE2E2C3E2E20FE2E2C3E2F5F5E2E2F5E2E2E2E2E2E2F5E2E2E2E2E2E2E2E2E2E2E2E2E2E2E2E2E2E2E2E2E2E2E2E2E2E2E2E2E2E2E2E2
310
E2E2E2E2E2E2E2E2E2E2E2E2E2E2E2E2E2E2E2E2E2E2E2E2E2E2E2E2E2E2E2E2E2E2E2E2E2E2E2E2E2E2E2E2E2E2E2E2E2E2E2E2E2E2E2E2E2E2E2E2E2E2E2E2E2E2E2F5E2E2E2E2E2E2E2F5E2E2F5E2E20FE2F5F5E20FE2E2C3E2E2F5F5E2E2E2E2E2E2E2E2E2E2E2E2E2E2E2E2E2E2E2E2E2E2E2E2E2E2E2E2E2E2E2E2E2
310
E2E2E2F5E2F5F5E2E20FE2C3C3E20FE2E2C3E2E20FE2F5F5E2F5F5E2E2F5E2E2E2E2E2E2F5E2E2E2E2E2E2E2E2E2E2E2E2E2E2E2E2E2E2E2E2E2E2E2E2E2E2E2E2E2E2E2E2E2E2E2E2E2E2E2E2E2E2E2E2E2E2E2E2E2E2E2F5F5F5F5F5F5F5F5F5F5F5F5F5F5F5F5F5F5F5F5F5F5F5F5F5F5F5F5F5F5F5F5E2E2E2E2E2E2E2
310
E2E2E2E2E2E2E2E2F5E2E2E2E2E2E2E2E2F5C3C3C3C3C3C3C3C3C3C3C3C3C3C3C3C3F5E2E2E2E2E2E2E2E2E2E2E2E2E2E2E2E2E2E2E2E2E2E2E2E2E2E2E2E2E2E2E2E2E2E2E2E2E2F5C3C3C3C3C3C3C3C3C3C3C3C3C3C3C3C3C3C3C3C3C3F5F5E2E2F5E2E2E2E2E2E2F5E2E2E2E2E2E2E2E2E2E2E2E2E2E2E2E2E2E2E2E2E2
310
E2E2E2E2E2E2E2E2E2E2E2E2E2E2E2E2E2E2E2E2E2E2E2E2E2E2E2E2E2E2F5F5F5F5F5F5F5F5F5F5F5F5F5F5F5F5F5F5F5F5F5F5F5F5F5F5F5F5F5F5F5F5E2E2E2E2E2E2E2E2E2E2E2E2E2E2F5E2E2E2E2E2E2E2E2E2F5C3C3C3C3C3C3C3C3C3C3C3C3C3C3C3C3F5E2E2E2E2E2E2E2E2E2E2E2E2E2E2E2E2E2E2E2E2E2E2E2
310
E2E2E2E2E2E2E2E2E2E2E2E2E2E2F5C3C3C3C3C3C3C3C3C3C3C3C3C3C3C3C3C3C3C3C3C3F5F5E2E2F5E2E2E2E2E2E2F5E2E2E2E2E2E2E2E2E2E2E2E2E2E2E2E2E2E2E2E2E2E2E2E2E2E2E2E2E2E2E2E2E2E2E2E2E2E2E2E2E2E2E2E2E2E2E2E2E2E2E2F5F5F5F5F5F5F5F5F5F5F5F5F5F5F5F5F5F5F5F5F5F5F5F5F5F5F5F5
310
F5F5F5F5E2E2E2E2E2E2E2E2E2E2E2E2E2F5E2E2E2E2E2E2E2E2E2E2F5E2E2F5E2E20FE2F5F5E20FE2E2C3F5F5F5E2E2E2E2E2E2E2E2E2E2E2E2E2E2E2E2E2E2E2E2E2E2E2E2E2E2E2E2E2E2E2E2E2E2E2E2E2F5E2F5F5E2E20FE2C3C3E20FE2E2C3E2E20FE2F5F5E2F5F5E2E2F5E2E2E2E2E2E2F5E2E2E2E2E2E2E2E2E2E2
310
E2E2E2E2E2E2E2E2E2E2E2E2E2E2E2E2E2E2E2E2E2E2E2E2E2E2E2E2F5F5F5F5F5F5F5F5F5F5F5F5F5F5F5F5F5F5F5F5F5F5F5F5F5F5F5F5F5F5F5F5F5F5F5F5F5F5F5F5F5F5F5F5F5F5E2E2E2E2E2E2E2E2E2E2F5F5E2E2E2E2E2E2E2E2E2E2E2F5C3C3C3C3C3C3C3C3C3C3C3C3C3C3C3F5F5E2E2E2E2E2E2E2E2E2E2E2E2
310
E2E2E2E2E2E2E2E2E2E2E2E2E2E2E2E2E2E2E2E2E2E2E2E2E2F5C3C3C3C3C3C3C3C3C3C3C3C3C3C3C3C3C3C3C3C3C3F5F5E2E2F5E2E2E2E2E2E2F5E2E2E2E2E2E2E2E2E2E2E2E2E2E2E2E2E2E2E2E2E2E2E2E2E2E2E2E2E2E2E2E2E2E2E2E2E2E2F5F5F5F5F5F5F5F5F5F5F5F5F5F5F5F5F5F5F5F5F5F5F5F5F5F5F5F5F5F5
310
F5F5F5F5F5F5F5F5F5F5F5F5F5F5F5F5E2E2E2E2E2E2E2E2E2F5E2E2E2E2E2E2E2E2E2E2E2E2E2F5C3C3C3C3C3C3C3C3C3C3C3C3C3C3C3F5E2E2E2E2E2E2E2E2E2E2E2E2E2E2E2E2E2E2E2E2E2E2E2E2E2E2E2E2E2E2E2E2E2E2E2E2E2E2F5C3C3C3C3C3C3C3C3C3C3C3C3C3C3C3C3C3C3C3C3C3F5F5E2E2F5E2E2E2E2E2E2
310
F5E2E2E2E2E2E2E2E2E2E2E2E2E2E2E2E2E2E2E2E2E2E2E2E2E2E2E2E2E2E2E2E2E2E2E2E2E2E2F5F5F5F5F5F5F5F5F5F5F5F5F5F5F5F5F5F5F5F5F5F5F5F5F5F5F5F5F5F5F5F5F5F5F5F5F5F5F5F5F5F5F5F5F5F5E2E2E2E2E2E2E2E2F5E2E2E2E2E2E2E2E2E2E2E2E2E2E2F5E2E2F5E2E20FE2F5F5E20FE2E2C3F5F5E2E2
310
E2E2E2E2E2E2E2E2E2E2E2E2E2E2E2E2E2E2E2E2E2E2E2E2E2E2E2E2E2E2E2E2E2E2E2E2F5E2F5F5E2E20FE2C3C3E20FE2E2C3E2E20FE2F5F5E2F5F5E2E2F5E2E2E2E2E2E2F5E2E2E2E2E2E2E2E2E2E2E2E2E2E2E2E2E2E2E2E2E2E2E2E2E2E2E2E2E2E2E2E2E2E2E2E2E2E2F5F5F5F5F5F5F5F5F5F5F5F5F5F5F5F5F5F5F5
310
F5F5F5F5F5F5F5F5F5F5F5F5F5F5F5F5F5F5F5F5F5F5F5F5F5F5F5E2E2E2E2E2E2E2F5E2E2E2E2E2E2E2E2E2E2E2E2E2E2E2F5C3C3C3C3C3C3C3C3C3C3C3C3C3C3F5F5E2E2E2E2E2E2E2E2E2E2E2E2E2E2E2E2E2E2E2E2E2E2E2E2E2E2E2E2E2E2E2E2E2E2E2E2E2E2F5C3C3C3C3C3C3C3C3C3C3C3C3C3C3C3C3C3C3C3C3C3
310
F5F5E2E2F5E2E2E2E2E2E2F5E2E2E2E2E2E2E2E2E2E2E2E2E2E2E2E2E2E2E2E2E2E2E2E2E2E2E2E2E2E2E2E2E2E2E2E2E2E2E2E2E2E2E2E2E2E2E2E2E2E2E2E2E2E2E2E2E2E2E2E2E2F5F5F5F5F5F5F5F5F5F5F5F5F5F5F5F5F5F5F5F5F5F5E2E2E2E2E2E2E2F5E2E2E2E2E2E2E2E2E2E2E2E2E2E2E2E2F5C3C3C3C3C3C3C3
310
C3C3C3C3C3C3C3F5E2E2E2E2E2E2E2E2E2E2E2E2E2E2E2E2E2E2E2E2E2E2E2E2E2E2E2E2E2E2E2E2E2E2E2E2E2E2E2F5C3C3C3C3C3C3C3C3C3C3C3C3C3C3C3C3C3C3C3C3C3F5F5E2E2F5E2E2E2E2E2E2F5E2E2E2E2E2E2E2E2E2E2E2E2E2E2E2E2E2E2E2E2E2E2E2E2E2E2E2E2E2E2E2E2E2E2E2E2E2E2E2E2E2E2E2E2E2E2
310
E2E2E2E2E2E2E2E2E2E2E2E2E2E2E2F5F5F5F5F5F5F5F5F5F5F5F5F5F5F5F5F5F5F5F5F5F5E2E2E2E2E2E2F5E2E2E2E2E2E2E2E2E2E2E2E2E2E2E2E2E2F5E2E2F5E2E20FE2F5F5E20FE2E2C3F5E2E2E2E2E2E2E2E2E2E2E2E2E2E2E2E2E2E2E2E2E2E2E2E2E2E2E2E2E2E2E2E2E2E2E2E2E2E2E2F5E2F5F5E2E20FE2C3C3E2
310
0FE2E2C3E2E20FE2F5F5E2F5F5E2E2F5E2E2E2E2E2E2F5E2E2E2E2E2E2E2E2E2E2E2E2E2E2E2E2E2E2E2E2E2E2E2E2E2E2E2E2E2E2E2E2E2E2E2E2E2E2E2E2E2E2E2E2E2E2E2E2E2E2E2E2E2E2E2E2E2E2E2E2E2F5F5F5F5F5F5F5F5F5F5F5F5F5F5F5F5F5F5F5F5F5F5F5F5F5F5F5F5E2E2E2E2E2E2E2E2E2E2E2E2E2E2E2
310
E2E2E2F5C3C3C3C3C3C3C3C3C3C3C3C3C3C3F5E2E2E2E2E2E2E2E2E2E2E2E2E2E2E2E2E2E2E2E2E2E2E2E2E2E2E2E2E2E2E2E2E2E2E2E2E2E2E2F5C3C3C3C3C3C3C3C3C3C3C3C3C3C3C3C3C3C3C3C3C3F5F5E2E2F5E2E2E2E2E2E2F5E2E2E2E2E2E2E2E2E2E2E2E2E2E2E2E2E2E2E2E2E2E2E2E2E2E2E2E2E2E2E2E2E2E2E2
310
E2E2E2E2E2E2E2E2E2E2E2E2E2E2E2E2E2E2E2E2E2E2E2E2E2E2F5F5F5F5F5F5F5F5F5F5F5F5F5F5F5F5F5F5F5F5F5F5E2E2E2E2E2E2E2E2E2E2E2E2E2E2E2E2E2E2E2E2E2E2E2E2F5C3C3C3C3C3C3C3C3C3C3C3C3C3F5F5E2E2E2E2E2E2E2E2E2E2E2E2E2E2E2E2E2E2E2E2E2E2E2E2E2E2E2E2E2E2E2E2E2E2E2E2E2E2E2
310
F5C3C3C3C3C3C3C3C3C3C3C3C3C3C3C3C3C3C3C3C3C3F5F5E2E2F5E2E2E2E2E2E2F5E2E2E2E2E2E2E2E2E2E2E2E2E2E2E2E2E2E2E2E2E2E2E2E2E2E2E2E2E2E2E2E2E2E2E2E2E2E2E2E2E2E2E2E2E2E2E2E2E2E2E2E2E2E2E2E2E2E2E2E2E2E2E2E2E2E2E2E2E2E2E2E2E2E2E2E2E2E2E2E2E2E2E2E2E2E2E2E2E2E2E2E2E2
310
E2E2E2E2E2E2E2E2E2E2E2E2E2E2F5E2E2F5E2E20FE2F5F5E20FE2E2F5E2E2E2E2E2E2E2E2E2E2E2E2E2E2E2E2E2E2E2E2E2E2E2E2E2E2E2E2E2E2E2E2E2E2E2E2E2E2E2E2F5E2F5F5E2E20FE2C3C3E20FE2E2C3E2E20FE2F5F5E2F5F5E2E2F5E2E2E2E2E2E2F5E2E2E2E2E2E2E2E2E2E2E2E2E2E2E2E2E2E2E2E2E2E2E2E2
310
E2E2E2E2E2E2E2E2E2E2E2E2E2E2E2E2E2E2E2E2E2E2E2E2E2E2E2E2E2E2E2E2E2E2E2E2E2E2E2E2E2E2E2E2E2E2E2E2E2E2E2E2E2E2E2E2E2E2E2E2E2E2E2E2E2E2E2E2E2E2E2E2E2E2E2E2E2E2E2E2E2E2E2F5C3C3C3C3C3C3C3C3C3C3C3C3C3F5E2E2E2E2E2E2E2E2E2E2E2E2E2E2E2E2E2E2E2E2E2E2E2E2E2E2E2E2E2
310
E2E2E2E2E2E2E2E2E2E2E2F5C3C3C3C3C3C3C3C3C3C3C3C3C3C3C3C3C3C3C3C3C3F5F5E2E2F5E2E2E2E2E2E2F5E2E2E2E2E2E2E2E2E2E2E2E2E2E2E2E2E2E2E2E2E2E2E2E2E2E2E2E2E2E2E2E2E2E2E2E2E2E2E2E2E2E2E2E2E2E2E2E2E2E2E2E2E2E2E2E2E2E2E2E2E2E2E2E2E2E2E2E2E2E2E2E2E2E2E2E2E2E2E2E2E2E2
310
E2E2E2E2E2E2E2E2E2E2E2E2E2E2E2E2E2E2E2E2E2E2E2E2E2F5C3C3C3C3C3C3C3C3C3C3C3C3C3F5E2E2E2E2E2E2E2E2E2E2E2E2E2E2E2E2E2E2E2E2E2E2E2E2E2E2E2E2E2E2E2E2E2E2E2E2E2E2E2E2F5C3C3C3C3C3C3C3C3C3C3C3C3C3C3C3C3C3C3C3C3C3F5F5E2E2F5E2E2E2E2E2E2F5E2E2E2E2E2E2E2E2E2E2E2E2E2
310
E2E2E2E2E2E2E2E2E2E2E2E2E2E2E2E2E2E2E2E2E2E2E2E2E2E2E2E2E2E2E2E2E2E2E2E2E2E2E2E2E2E2E2E2E2E2E2E2E2E2E2E2E2E2E2E2E2E2E2E2E2E2E2E2E2E2E2E2E2E2E2E2E2E2E2E2E2E2E2E2E2E2E2E2E2E2E2E2E2E2E2E2E2E2F5E2E2F5E2E20FE2F5F5E20FF5E2F5E2E2E2E2E2E2E2E2E2E2E2E2E2E2E2E2E2E2
310
E2E2E2E2E2E2E2E2E2E2E2E2E2E2E2E2E2E2E2E2E2E2F5E2F5F5E2E20FE2C3C3E20FE2E2C3E2E20FE2F5F5E2F5F5E2E2F5E2E2E2E2E2E2F5E2E2E2E2E2E2E2E2E2E2E2E2E2E2E2E2E2E2E2E2E2E2E2E2E2E2E2E2E2E2E2E2E2E2E2E2E2E2E2E2E2E2E2E2E2E2E2E2E2E2E2E2E2E2E2E2E2E2E2E2E2E2E2E2E2E2E2E2E2E2E2
310
E2E2E2E2E2E2E2E2E2E2E2E2E2E2E2E2E2E2E2E2E2E2E2E2E2E2E2E2E2E2E2E2E2E2E2E2F5E2E2C3E2E20FE2E2C3E20FE2E2F5E2E2E2E2E2E2E2E2E2E2E2E2E2E2E2E2E2E2E2E2E2E2E2E2E2E2E2E2E2E2E2E2E2E2E2E2E2E2E2E2F5E2E2C3E2E20FE2C3C3E20FE2E2C3E2E20FE2E2C3E2F5F5E2E2F5E2E2E2E2E2E2F5E2E2
310
E2E2E2E2E2E2E2E2E2E2E2E2E2E2E2E2E2E2E2E2E2E2E2E2E2E2E2E2E2E2E2E2E2E2E2E2E2E2E2E2E2E2E2E2E2E2E2E2E2E2E2E2E2E2E2E2E2E2E2E2E2E2E2E2E2E2E2E2E2E2E2E2E2E2E2E2E2E2E2E2E2E2E2E2E2E2E2E2E2E2E2E2E2E2E2E2E2E2E2E2E2E2E2E2E2F5C3C3C3C3C3C3C3C3C3C3C3C3F5F5E2E2E2E2E2E2E2
310
E2E2E2E2E2E2E2E2E2E2E2E2E2E2E2E2E2E2E2E2E2E2E2E2E2E2E2E2E2E2E2E2E2F5C3C3C3C3C3C3C3C3C3C3C3C3C3C3C3C3C3C3C3C3C3F5F5E2E2F5E2E2E2E2E2E2F5E2E2E2E2E2E2E2E2E2E2E2E2E2E2E2E2E2E2E2E2E2E2E2E2E2E2E2E2E2E2E2E2E2E2E2E2E2E2E2E2E2E2E2E2E2E2E2E2E2E2E2E2E2E2E2E2E2E2E2E2
310
E2E2E2E2E2E2E2E2E2E2E2E2E2E2E2E2E2E2E2E2E2E2E2E2E2E2E2E2E2E2E2E2E2E2E2E2E2E2E2E2E2E2E2E2E2E2E2F5E2E2F5E2E20FE2F5F5E20FF5F5E2E2E2E2E2E2E2E2E2E2E2E2E2E2E2E2E2E2E2E2E2E2E2E2E2E2E2E2E2E2E2E2E2E2E2E2E2E2E2E2E2F5E2F5F5E2E20FE2C3C3E20FE2E2C3E2E20FE2F5F5E2F5F5E2
310
E2F5E2E2E2E2E2E2F5E2E2E2E2E2E2E2E2E2E2E2E2E2E2E2E2E2E2E2E2E2E2E2E2E2E2E2E2E2E2E2E2E2E2E2E2E2E2E2E2E2E2E2E2E2E2E2E2E2E2E2E2E2E2E2E2E2E2E2E2E2E2E2E2E2E2E2E2E2E2E2E2E2E2E2E2E2E2E2E2E2E2E2E2E2E2E2E2E2E2E2E2E2E2E2E2E2E2E2E2E2E2E2E2E2E2E2F5E2E2C3E2E20FE2E2C3E2
310
0FE2F5E2E2E2E2E2E2E2E2E2E2E2E2E2E2E2E2E2E2E2E2E2E2E2E2E2E2E2E2E2E2E2E2E2E2E2E2E2E2E2E2E2F5E2E2C3E2E20FE2C3C3E20FE2E2C3E2E20FE2E2C3E2F5F5E2E2F5E2E2E2E2E2E2F5E2E2E2E2E2E2E2E2E2E2E2E2E2E2E2E2E2E2E2E2E2E2E2E2E2E2E2E2E2E2E2E2E2E2E2E2E2E2E2E2E2E2E2E2E2E2E2E2E2
310
E2E2E2E2E2E2E2E2E2E2E2E2E2E2E2E2E2E2E2E2E2E2E2E2E2E2E2E2E2E2E2E2E2E2E2E2E2E2E2E2E2E2E2E2E2E2E2E2E2E2E2E2E2E2E2E2E2E2F5C3C3C3C3C3C3C3C3C3C3C3C3F5E2E2E2E2E2E2E2E2E2E2E2E2E2E2E2E2E2E2E2E2E2E2E2E2E2E2E2E2E2E2E2E2E2E2E2E2E2E2E2E2E2F5C3C3C3C3C3C3C3C3C3C3C3C3C3
310
C3C3C3C3C3C3C3C3F5F5E2E2F5E2E2E2E2E2E2F5E2E2E2E2E2E2E2E2E2E2E2E2E2E2E2E2E2E2E2E2E2E2E2E2E2E2E2E2E2E2E2E2E2E2E2E2E2E2E2E2E2E2E2E2E2E2E2E2E2E2E2E2E2E2E2E2E2E2E2E2E2E2E2E2E2E2E2E2E2E2E2E2E2E2E2E2E2E2E2E2E2E2E2E2E2E2E2E2E2E2E2E2E2E2E2E2E2E2E2E2E2E2E2E2E2E2E2
310
F5E2E2F5E2E20FE2F5F5E20FF5F5E2E2E2E2E2E2E2E2E2E2E2E2E2E2E2E2E2E2E2E2E2E2E2E2E2E2E2E2E2E2E2E2E2E2E2E2E2E2E2E2E2F5E2F5F5E2E20FE2C3C3E20FE2E2C3E2E20FE2F5F5E2F5F5E2E2F5E2E2E2E2E2E2F5E2E2E2E2E2E2E2E2E2E2E2E2E2E2E2E2E2E2E2E2E2E2E2E2E2E2E2E2E2E2E2E2E2E2E2E2E2E2
310
E2E2E2E2E2E2E2E2E2E2E2E2E2E2E2E2E2E2E2E2E2E2E2E2E2E2E2E2E2E2E2E2E2E2E2E2E2E2E2E2E2E2E2E2E2E2E2E2E2E2E2E2E2E2E2E2E2E2E2E2E2E2E2E2E2E2E2E2E2F5E2E2C3E2E20FE2E2C3E20FE2F5E2E2E2E2E2E2E2E2E2E2E2E2E2E2E2E2E2E2E2E2E2E2E2E2E2E2E2E2E2E2E2E2E2E2E2E2E2E2E2E2E2F5E2E2
310
C3E2E20FE2C3C3E20FE2E2C3E2E20FE2E2C3E2F5F5E2E2F5E2E2E2E2E2E2F5E2E2E2E2E2E2E2E2E2E2E2E2E2E2E2E2E2E2E2E2E2E2E2E2E2E2E2E2E2E2E2E2E2E2E2E2E2E2E2E2E2E2E2E2E2E2E2E2E2E2E2E2E2E2E2E2E2E2E2E2E2E2E2E2E2E2E2E2E2E2E2E2E2E2E2E2E2E2E2E2E2E2E2E2E2E2E2E2E2E2E2E2E2E2E2E2
310
E2E2E2E2E2E2E2E2E2E2E2F5C3C3C3C3C3C3C3C3C3C3C3C3F5E2E2E2E2E2E2E2E2E2E2E2E2E2E2E2E2E2E2E2E2E2E2E2E2E2E2E2E2E2E2E2E2E2E2E2E2E2E2E2E2E2F5C3C3C3C3C3C3C3C3C3C3C3C3C3C3C3C3C3C3C3C3C3F5F5E2E2F5E2E2E2E2E2E2F5E2E2E2E2E2E2E2E2E2E2E2E2E2E2E2E2E2E2E2E2E2E2E2E2E2E2E2
310
E2E2E2E2E2E2E2E2E2E2E2E2E2E2E2E2E2E2E2E2E2E2E2E2E2E2E2E2E2E2E2E2E2E2E2E2E2E2E2E2E2E2E2E2E2E2E2E2E2E2E2E2E2E2E2E2E2E2E2E2E2E2E2E2E2E2E2E2E2E2E2E2E2E2E2E2E2E2E2E2F5E2E2F5E2E20FE2F5F5E20FF5F5E2E2E2E2E2E2E2E2E2E2E2E2E2E2E2E2E2E2E2E2E2E2E2E2E2E2E2E2E2E2E2E2E2
310
E2E2E2E2E2E2E2E2F5E2F5F5E2E20FE2C3C3E20FE2E2C3E2E20FE2F5F5E2F5F5E2E2F5E2E2E2E2E2E2F5E2E2E2E2E2E2E2E2E2E2E2E2E2E2E2E2E2E2E2E2E2E2E2E2E2E2E2E2E2E2E2E2E2E2E2E2E2E2E2E2E2E2E2E2E2E2E2E2E2E2E2E2E2E2E2E2E2E2E2E2E2E2E2E2E2E2E2E2E2E2E2E2E2E2E2E2E2E2E2E2E2E2E2E2E2
310
E2E2E2E2E2E2E2E2E2E2E2E2E2E2E2E2E2E2E2E2E2E2F5E2E2C3E2E20FE2E2C3E20FF5F5E2E2E2E2E2E2E2E2E2E2E2E2E2E2E2E2E2E2E2E2E2E2E2E2E2E2E2E2E2E2E2E2E2E2E2E2E2E2E2E2E2F5E2E2C3E2E20FE2C3C3E20FE2E2C3E2E20FE2E2C3E2F5F5E2E2F5E2E2E2E2E2E2F5E2E2E2E2E2E2E2E2E2E2E2E2E2E2E2E2
310
E2E2E2E2E2E2E2E2E2E2E2E2E2E2E2E2E2E2E2E2E2E2E2E2E2E2E2E2E2E2E2E2E2E2E2E2E2E2E2E2E2E2E2E2E2E2E2E2E2E2E2E2E2E2E2E2E2E2E2E2E2E2E2E2E2E2E2E2E2E2E2E2E2E2E2E2E2E2E2E2E2E2E2E2E2E2E2E2E2E2E2F5C3C3C3C3C3C3C3C3C3C3C3F5F5E2E2E2E2E2E2E2E2E2E2E2E2E2E2E2E2E2E2E2E2E2E2
310
E2E2E2E2E2E2E2E2E2E2E2E2E2E2E2E2E2E2E2F5C3C3C3C3C3C3C3C3C3C3C3C3C3C3C3C3C3C3C3C3C3F5F5E2E2F5E2E2E2E2E2E2F5E2E2E2E2E2E2E2E2E2E2E2E2E2E2E2E2E2E2E2E2E2E2E2E2E2E2E2E2E2E2E2E2E2E2E2E2E2E2E2E2E2E2E2E2E2E2E2E2E2E2E2E2E2E2E2E2E2E2E2E2E2E2E2E2E2E2E2E2E2E2E2E2E2E2
310
E2E2E2E2E2E2E2E2E2E2E2E2E2E2E2E2E2E2E2E2E2E2E2E2E2E2E2E2E2E2E2E2E2F5E2E2F5E2E20FE2F5F5E20FF5E2E2E2E2E2E2E2E2E2E2E2E2E2E2E2E2E2E2E2E2E2E2E2E2E2E2E2E2E2E2E2E2E2E2E2E2E2E2E2E2E2E2F5E2F5F5E2E20FE2C3C3E20FE2E2C3E2E20FE2F5F5E2F5F5E2E2F5E2E2E2E2E2E2F5E2E2E2E2E2
310
E2E2E2E2E2E2E2E2E2E2E2E2E2E2E2E2E2E2E2E2E2E2E2E2E2E2E2E2E2E2E2E2E2E2E2E2E2E2E2E2E2E2E2E2E2E2E2E2E2E2E2E2E2E2E2E2E2E2E2E2E2E2E2E2E2E2E2E2E2E2E2E2E2E2E2E2E2E2E2E2E2E2E2E2E2E2E2E2E2E2E2E2E2E2E2E2E2E2E2E2E2E2F5E2E2C3E2E20FE2E2C3E20FF5E2E2E2E2E2E2E2E2E2E2E2E2
310
E2E2E2E2E2E2E2E2E2E2E2E2E2E2E2E2E2E2E2E2E2E2E2E2E2E2E2E2E2E2F5E2E2C3E2E20FE2C3C3E20FE2E2C3E2E20FE2E2C3E2F5F5E2E2F5E2E2E2E2E2E2F5E2E2E2E2E2E2E2E2E2E2E2E2E2E2E2E2E2E2E2E2E2E2E2E2E2E2E2E2E2E2E2E2E2E2E2E2E2E2E2E2E2E2E2E2E2E2E2E2E2E2E2E2E2E2E2E2E2E2E2E2E2E2E2
310
E2E2E2E2E2E2E2E2E2E2E2E2E2E2E2E2E2E2E2E2E2E2E2E2E2E2E2E2E2E2E2E2E2E2E2E2E2E2E2E2E2E2E2E2F5C3C3C3C3C3C3C3C3C3C3C3F5E2E2E2E2E2E2E2E2E2E2E2E2E2E2E2E2E2E2E2E2E2E2E2E2E2E2E2E2E2E2E2E2E2E2E2E2E2E2E2E2E2E2F5C3C3C3C3C3C3C3C3C3C3C3C3C3C3C3C3C3C3C3C3C3F5F5E2E2F5E2
310
E2E2E2E2E2F5E2E2E2E2E2E2E2E2E2E2E2E2E2E2E2E2E2E2E2E2E2E2E2E2E2E2E2E2E2E2E2E2E2E2E2E2E2E2E2E2E2E2E2E2E2E2E2E2E2E2E2E2E2E2E2E2E2E2E2E2E2E2E2E2E2E2E2E2E2E2E2E2E2E2E2E2E2E2E2E2E2E2E2E2E2E2E2E2E2E2E2E2E2E2E2E2E2E2E2E2E2E2E2E2E2E2E2F5E2E2F5E2E20FE2F5F5E20FF5E2
310
E2E2E2E2E2E2E2E2E2E2E2E2E2E2E2E2E2E2E2E2E2E2E2E2E2E2E2E2E2E2E2E2E2E2E2E2E2E2E2E2E2F5E2F5F5E2E20FE2C3C3E20FE2E2C3E2E20FE2F5F5E2F5F5E2E2F5E2E2E2E2E2E2F5E2E2E2E2E2E2E2E2E2E2E2E2E2E2E2E2E2E2E2E2E2E2E2E2E2E2E2E2E2E2E2E2E2E2E2E2E2E2E2E2E2E2E2E2E2E2E2E2E2E2E2E2
310
E2E2E2E2E2E2E2E2E2E2E2E2E2E2E2E2E2E2E2E2E2E2E2E2E2E2E2E2E2E2E2E2E2E2E2E2E2E2E2E2E2E2E2E2E2E2E2E2E2E2E2E2E2E2E2F5E2E2F5E2E20FE2F5C3E20FF5E2E2E2E2E2E2E2E2E2E2E2E2E2E2E2E2E2E2E2E2E2E2E2E2E2E2E2E2E2E2E2E2E2E2E2E2E2E2E2E2E2E2F5E2F5C3E2E20FE2C3C3E20FE2E2C3E2E2
310
0FE2F5C3E2F5F5E2E2F5E2E2E2E2E2E2F5E2E2E2E2E2E2E2E2E2E2E2E2E2E2E2E2E2E2E2E2E2E2E2E2E2E2E2E2E2E2E2E2E2E2E2E2E2E2E2E2E2E2E2E2E2E2E2E2E2E2E2E2E2E2E2E2E2E2E2E2E2E2E2E2E2E2E2E2E2E2E2E2E2E2E2E2E2E2E2E2E2E2E2E2E2E2E2E2E2E2E2E2E2E2E2E2E2E2E2E2E2E2E2E2E2E2E2F5C3C3
310
C3C3C3C3C3C3C3C3C3F5E2E2E2E2E2E2E2E2E2E2E2E2E2E2E2E2E2E2E2E2E2E2E2E2E2E2E2E2E2E2E2E2E2E2E2E2E2E2E2E2E2E2F5C3C3C3C3C3C3C3C3C3C3C3C3C3C3C3C3C3C3C3C3C3F5F5E2E2F5E2E2E2E2E2E2F5E2E2E2E2E2E2E2E2E2E2E2E2E2E2E2E2E2E2E2E2E2E2E2E2E2E2E2E2E2E2E2E2E2E2E2E2E2E2E2E2E2
310
E2E2E2E2E2E2E2E2E2E2E2E2E2E2E2E2E2E2E2E2E2E2E2E2E2E2E2E2E2E2E2E2E2E2E2E2E2E2E2E2E2E2E2E2E2E2E2E2E2E2E2E2E2E2E2E2E2E2E2E2E2E2E2E2E2E2F5E2E2F5E2E20FE2F5F5E20FF5E2E2E2E2E2E2E2E2E2E2E2E2E2E2E2E2E2E2E2E2E2E2E2E2E2E2E2E2E2E2E2E2E2E2E2E2E2E2E2E2E2E2F5E2F5F5E2E2
310
0FE2C3C3E20FE2E2C3E2E20FE2F5F5E2F5F5E2E2F5E2E2E2E2E2E2F5E2E2E2E2E2E2E2E2E2E2E2E2E2E2E2E2E2E2E2E2E2E2E2E2E2E2E2E2E2E2E2E2E2E2E2E2E2E2E2E2E2E2E2E2E2E2E2E2E2E2E2E2E2E2E2E2E2E2E2E2E2E2E2E2E2E2E2E2E2E2E2E2E2E2E2E2E2E2E2E2E2E2E2E2E2E2E2E2E2E2E2E2E2E2E2E2E2E2E2
310
E2E2E2E2E2E2E2E2F5E2E2F5E2E20FE2F5C3E20FF5E2E2E2E2E2E2E2E2E2E2E2E2E2E2E2E2E2E2E2E2E2E2E2E2E2E2E2E2E2E2E2E2E2E2E2E2E2E2E2E2E2E2F5E2F5C3E2E20FE2C3C3E20FE2E2C3E2E20FE2F5C3E2F5F5E2E2F5E2E2E2E2E2E2F5E2E2E2E2E2E2E2E2E2E2E2E2E2E2E2E2E2E2E2E2E2E2E2E2E2E2E2E2E2E2
310
E2E2E2E2E2E2E2E2E2E2E2E2E2E2E2E2E2E2E2E2E2E2E2E2E2E2E2E2E2E2E2E2E2E2E2E2E2E2E2E2E2E2E2E2E2E2E2E2E2E2E2E2E2E2E2E2E2E2E2E2E2E2E2E2E2E2E2E2E2E2E2E2E2E2E2E2E2F5C3C3C3C3C3C3C3C3C3C3C3F5E2E2E2E2E2E2E2E2E2E2E2E2E2E2E2E2E2E2E2E2E2E2E2E2E2E2E2E2E2E2E2E2E2E2E2E2E2
310
E2E2E2E2E2F5C3C3C3C3C3C3C3C3C3C3C3C3C3C3C3C3C3C3C3C3C3F5F5E2E2F5E2E2E2E2E2E2F5E2E2E2E2E2E2E2E2E2E2E2E2E2E2E2E2E2E2E2E2E2E2E2E2E2E2E2E2E2E2E2E2E2E2E2E2E2E2E2E2E2E2E2E2E2E2E2E2E2E2E2E2E2E2E2E2E2E2E2E2E2E2E2E2E2E2E2E2E2E2E2E2E2E2E2E2E2E2E2E2E2E2E2E2E2E2E2E2
310
E2E2E2E2E2E2E2E2E2E2E2E2E2E2E2E2E2E2E2F5E2E2F5E2E20FE2E2F5E20FF5E2E2E2E2E2E2E2E2E2E2E2E2E2E2E2E2E2E2E2E2E2E2E2E2E2E2E2E2E2E2E2E2E2E2E2E2E2E2E2E2E2E2F5E2E2F5E2E20FE2C3C3E20FE2E2C3E2E20FE2E2F5E2F5F5E2E2F5E2E2E2E2E2E2F5E2E2E2E2E2E2E2E2E2E2E2E2E2E2E2E2E2E2E2
310
E2E2E2E2E2E2E2E2E2E2E2E2E2E2E2E2E2E2E2E2E2E2E2E2E2E2E2E2E2E2E2E2E2E2E2E2E2E2E2E2E2E2E2E2E2E2E2E2E2E2E2E2E2E2E2E2E2E2E2E2E2E2E2E2E2E2E2E2E2E2E2E2E2E2E2E2E2E2E2E2E2E2E2E2E2E2E2E2F5E2E2F5E2E20FE2F5C3E20FF5E2E2E2E2E2E2E2E2E2E2E2E2E2E2E2E2E2E2E2E2E2E2E2E2E2E2
310
E2E2E2E2E2E2E2E2E2E2E2E2E2E2E2E2F5E2F5C3E2E20FE2C3C3E20FE2E2C3E2E20FE2F5C3E2F5F5E2E2F5E2E2E2E2E2E2F5E2E2E2E2E2E2E2E2E2E2E2E2E2E2E2E2E2E2E2E2E2E2E2E2E2E2E2E2E2E2E2E2E2E2E2E2E2E2E2E2E2E2E2E2E2E2E2E2E2E2E2E2E2E2E2E2E2E2E2E2E2E2E2E2E2E2E2E2E2E2E2E2E2E2E2E2E2
310
E2E2E2E2E2E2E2E2E2E2E2E2E2E2E2E2E2E2E2E2E2E2E2E2E2E2E2E2E2E2F5C3C3C3C3C3C3C3C3C3C3C3F5E2E2E2E2E2E2E2E2E2E2E2E2E2E2E2E2E2E2E2E2E2E2E2E2E2E2E2E2E2E2E2E2E2E2E2E2E2E2E2E2E2E2F5C3C3C3C3C3C3C3C3C3C3C3C3C3C3C3C3C3C3C3C3C3F5F5E2E2F5E2E2E2E2E2E2F5E2E2E2E2E2E2E2E2
310
E2E2E2E2E2E2E2E2E2E2E2E2E2E2E2E2E2E2E2E2E2E2E2E2E2E2E2E2E2E2E2E2E2E2E2E2E2E2E2E2E2E2E2E2E2E2E2E2E2E2E2E2E2E2E2E2E2E2E2E2E2E2E2E2E2E2E2E2E2E2E2E2E2E2E2E2E2E2E2E2E2E2E2E2E2E2E2E2E2E2E2E2E2E2E2E2E2E2E2F5E2E2F5E2E20FE2E2F5E20FF5E2E2E2E2E2E2E2E2E2E2E2E2E2E2E2
310
E2E2E2E2E2E2E2E2E2E2E2E2E2E2E2E2E2E2E2E2E2E2E2E2E2E2E2F5E2E2F5E2E20FE2C3C3E20FE2E2C3E2E20FE2E2F5E2F5F5E2E2F5E2E2E2E2E2E2F5E2E2E2E2E2E2E2E2E2E2E2E2E2E2E2E2E2E2E2E2E2E2E2E2E2E2E2E2E2E2E2E2E2E2E2E2E2E2E2E2E2E2E2E2E2E2E2E2E2E2E2E2E2E2E2E2E2E2E2E2E2E2E2E2E2E2
310
E2E2E2E2E2E2E2E2E2E2E2E2E2E2E2E2E2E2E2E2E2E2E2E2E2E2E2E2E2E2E2E2E2E2E2E2E2E2E2E2E2F5E2E2F5E2E20FE2F5C3E20FF5E2E2E2E2E2E2E2E2E2E2E2E2E2E2E2E2E2E2E2E2E2E2E2E2E2E2E2E2E2E2E2E2E2E2E2E2E2E2E2E2E2E2F5E2F5C3E2E20FE2C3C3E20FE2E2C3E2E20FE2F5C3E2F5F5E2E2F5E2E2E2E2
310
E2E2F5E2E2E2E2E2E2E2E2E2E2E2E2E2E2E2E2E2E2E2E2E2E2E2E2E2E2E2E2E2E2E2E2E2E2E2E2E2E2E2E2E2E2E2E2E2E2E2E2E2E2E2E2E2E2E2E2E2E2E2E2E2E2E2E2E2E2E2E2E2E2E2E2E2E2E2E2E2E2E2E2E2E2E2E2E2E2E2E2E2E2E2E2E2E2E2E2E2E2E2E2E2E2E2E2E2E2E2F5C3C3C3C3C3C3C3C3C3C3C3F5E2E2E2E2
310
E2E2E2E2E2E2E2E2E2E2E2E2E2E2E2E2E2E2E2E2E2E2E2E2E2E2E2E2E2E2E2E2E2E2E2E2E2E2F5C3C3C3C3C3C3C3C3C3C3C3C3C3C3C3C3C3C3C3C3C3F5F5E2E2F5E2E2E2E2E2E2F5E2E2E2E2E2E2E2E2E2E2E2E2E2E2E2E2E2E2E2E2E2E2E2E2E2E2E2E2E2E2E2E2E2E2E2E2E2E2E2E2E2E2E2E2E2E2E2E2E2E2E2E2E2E2E2
310
E2E2E2E2E2E2E2E2E2E2E2E2E2E2E2E2E2E2E2E2E2E2E2E2E2E2E2E2E2E2E2E2E2E2E2E2E2E2E2E2E2E2E2E2E2E2E2E2E2E2E2E2F5E2E2F5E2E20FE2E2F5E2F5F5E2E2E2E2E2E2E2E2E2E2E2E2E2E2E2E2E2E2E2E2E2E2E2E2E2E2E2E2E2E2E2E2E2E2E2E2E2E2E2E2E2E2F5E2E2F5E2E20FE2C3C3E20FE2E2C3E2E20FE2E2
310
F5E2F5F5E2E2F5E2E2E2E2E2E2F5E2E2E2E2E2E2E2E2E2E2E2E2E2E2E2E2E2E2E2E2E2E2E2E2E2E2E2E2E2E2E2E2E2E2E2E2E2E2E2E2E2E2E2E2E2E2E2E2E2E2E2E2E2E2E2E2E2E2E2E2E2E2E2E2E2E2E2E2E2E2E2E2E2E2E2E2E2E2E2E2E2E2E2E2E2E2E2E2E2E2E2E2E2E2E2E2E2E2E2E2E2E2E2E2E2E2E2F5E2E2F5E2E2
310
0FE2F5C3E20FF5E2E2E2E2E2E2E2E2E2E2E2E2E2E2E2E2E2E2E2E2E2E2E2E2E2E2E2E2E2E2E2E2E2E2E2E2E2E2E2E2E2E2F5E2F5C3E2E20FE2C3C3E20FE2E2C3E2E20FE2F5C3E2F5F5E2E2F5E2E2E2E2E2E2F5E2E2E2E2E2E2E2E2E2E2E2E2E2E2E2E2E2E2E2E2E2E2E2E2E2E2E2E2E2E2E2E2E2E2E2E2E2E2E2E2E2E2E2E2
310
E2E2E2E2E2E2E2E2E2E2E2E2E2E2E2E2E2E2E2E2E2E2E2E2E2E2E2E2E2E2E2E2E2E2E2E2E2E2E2E2E2E2E2E2E2E2E2E2E2E2E2E2E2E2E2E2E2E2E2E2E2E2E2F5C3C3C3C3C3C3C3C3C3C3C3F5E2E2E2E2E2E2E2E2E2E2E2E2E2E2E2E2E2E2E2E2E2E2E2E2E2E2E2E2E2E2E2E2E2E2E2E2E2E2E2E2E2E2F5C3C3C3C3C3C3C3C3
310
C3C3C3C3C3C3C3C3C3C3C3C3C3F5F5E2E2F5E2E2E2E2E2E2F5E2E2E2E2E2E2E2E2E2E2E2E2E2E2E2E2E2E2E2E2E2E2E2E2E2E2E2E2E2E2E2E2E2E2E2E2E2E2E2E2E2E2E2E2E2E2E2E2E2E2E2E2E2E2E2E2E2E2E2E2E2E2E2E2E2E2E2E2E2E2E2E2E2E2E2E2E2E2E2E2E2E2E2E2E2E2E2E2E2E2E2E2E2E2E2E2E2E2E2E2E2E2
310
E2E2E2E2E2F5E2E2F5E2E20FE2E2F5E2F5F5E2E2E2E2E2E2E2E2E2E2E2E2E2E2E2E2E2E2E2E2E2E2E2E2E2E2E2E2E2E2E2E2E2E2E2E2E2E2E2E2E2E2F5E2E2F5E2E20FE2C3C3E20FE2E2C3E2E20FE2E2F5E2F5F5E2E2F5E2E2E2E2E2E2F5E2E2E2E2E2E2E2E2E2E2E2E2E2E2E2E2E2E2E2E2E2E2E2E2E2E2E2E2E2E2E2E2E2
310
E2E2E2E2E2E2E2E2E2E2E2E2E2E2E2E2E2E2E2E2E2E2E2E2E2E2E2E2E2E2E2E2E2E2E2E2E2E2E2E2E2E2E2E2E2E2E2E2E2E2E2E2E2E2E2E2E2E2E2E2E2E2E2E2E2E2E2E2E2E2E2E2E2E2F5E2E2F5E2E20FE2F5C3E20FF5E2E2E2E2E2E2E2E2E2E2E2E2E2E2E2E2E2E2E2E2E2E2E2E2E2E2E2E2E2E2E2E2E2E2E2E2E2E2E2E2
310
E2E2F5E2F5C3E2E20FE2C3C3E20FE2E2C3E2E20FE2F5C3E2F5F5E2E2F5E2E2E2E2E2E2F5E2E2E2E2E2E2E2E2E2E2E2E2E2E2E2E2E2E2E2E2E2E2E2E2E2E2E2E2E2E2E2E2E2E2E2E2E2E2E2E2E2E2E2E2E2E2E2E2E2E2E2E2E2E2E2E2E2E2E2E2E2E2E2E2E2E2E2E2E2E2E2E2E2E2E2E2E2E2E2E2E2E2E2E2E2E2E2E2E2E2E2
310
E2E2E2E2E2E2E2E2E2E2E2E2E2E2E2E2F5C3C3C3C3C3C3C3C3C3C3F5F5E2E2E2E2E2E2E2E2E2E2E2E2E2E2E2E2E2E2E2E2E2E2E2E2E2E2E2E2E2E2E2E2E2E2E2E2E2E2E2E2E2E2F5C3C3C3C3C3C3C3C3C3C3C3C3C3C3C3C3C3C3C3C3C3F5F5E2E2F5E2E2E2E2E2E2F5E2E2E2E2E2E2E2E2E2E2E2E2E2E2E2E2E2E2E2E2E2E2
310
E2E2E2E2E2E2E2E2E2E2E2E2E2E2E2E2E2E2E2E2E2E2E2E2E2E2E2E2E2E2E2E2E2E2E2E2E2E2E2E2E2E2E2E2E2E2E2E2E2E2E2E2E2E2E2E2E2E2E2E2E2E2E2E2E2E2E2E2E2E2E2E2E2E2E2E2E2E2E2E2E2E2E2E2E2F5E2E2F5E2E20FE2E2F5E2F5E2E2E2E2E2E2E2E2E2E2E2E2E2E2E2E2E2E2E2E2E2E2E2E2E2E2E2E2E2E2
310
E2E2E2E2E2E2E2E2E2E2E2E2E2F5E2E2F5E2E20FE2C3C3E20FE2E2C3E2E20FE2E2F5E2F5F5E2E2F5E2E2E2E2E2E2F5E2E2E2E2E2E2E2E2E2E2E2E2E2E2E2E2E2E2E2E2E2E2E2E2E2E2E2E2E2E2E2E2E2E2E2E2E2E2E2E2E2E2E2E2E2E2E2E2E2E2E2E2E2E2E2E2E2E2E2E2E2E2E2E2E2E2E2E2E2E2E2E2E2E2E2E2E2E2E2E2
310
E2E2E2E2E2E2E2E2E2E2E2E2E2E2E2E2E2E2E2E2E2E2E2E2E2E2E2F5E2E2F5E2E20FF5F5C3E2F5E2E2E2E2E2E2E2E2E2E2E2E2E2E2E2E2E2E2E2E2E2E2E2E2E2E2E2E2E2E2E2E2E2E2E2E2E2E2E2E2E2E2E2F5E2F5C3E2E20FE2C3C3E20FE2E2C3E2E20FE2F5C3E2F5F5E2E2F5E2E2E2E2E2E2F5E2E2E2E2E2E2E2E2E2E2E2
310
E2E2E2E2E2E2E2E2E2E2E2E2E2E2E2E2E2E2E2E2E2E2E2E2E2E2E2E2E2E2E2E2E2E2E2E2E2E2E2E2E2E2E2E2E2E2E2E2E2E2E2E2E2E2E2E2E2E2E2E2E2E2E2E2E2E2E2E2E2E2E2E2E2E2E2E2E2E2E2E2E2E2E2E2E2E2E2E2E2E2E2E2E2E2E2E2F5C3C3C3C3C3C3F5F5C3C3F5E2E2E2E2E2E2E2E2E2E2E2E2E2E2E2E2E2E2E2
310
E2E2E2E2E2E2E2E2E2E2E2E2E2E2E2E2E2E2E2E2E2E2E2E2F5C3C3C3C3C3C3C3C3C3C3C3F5C3C3C3C3C3C3C3C3C3F5F5E2E2F5E2E2E2E2E2E2F5E2E2E2E2E2E2E2E2E2E2E2E2E2E2E2E2E2E2E2E2E2E2E2E2E2E2E2E2E2E2E2E2E2E2E2E2E2E2E2E2E2E2E2E2E2E2E2E2E2E2E2E2E2E2E2E2E2E2E2E2E2E2E2E2E2E2E2E2E2
310
E2E2E2E2E2E2E2E2E2E2E2E2E2E2E2E2E2E2E2E2E2E2E2E2E2E2E2E2E2E2E2E2E2E2E2E2E2E2F5E2E2C3E2E2F5F5F5C3E2F5E2E2E2E2E2E2E2E2E2E2E2E2E2E2E2E2E2E2E2E2E2E2E2E2E2E2E2E2E2E2E2E2E2E2E2E2E2E2E2E2E2E2E2F5E2E2F5E2E20FE2C3C3E20FF5F5C3E2E20FE2E2F5E2F5F5E2E2F5E2E2E2E2E2E2F5
310
E2E2E2E2E2E2E2E2E2E2E2E2E2E2E2E2E2E2E2E2E2E2E2E2E2E2E2E2E2E2E2E2E2E2E2E2E2E2E2E2E2E2E2E2E2E2E2E2E2E2E2E2E2E2E2E2E2E2E2E2E2E2E2E2E2E2E2E2E2E2E2E2E2E2E2E2E2E2E2E2E2E2E2E2E2E2E2E2E2E2E2E2E2E2E2E2E2E2E2E2E2E2E2E2E2E2E2F5F5F5F5E2E2F5E2E2F5F5F5E2E2E2E2E2E2E2E2
310
E2E2E2E2E2E2E2E2E2E2E2E2E2E2E2E2E2E2E2E2E2E2E2E2E2E2E2E2E2E2E2E2E2E2E2F5F5F5F5F5F5F5F5F5F5E2F5E2F5F5F5F5F5F5F5F5F5F5F5E2E2F5E2E2E2E2E2E2F5E2E2E2E2E2E2E2E2E2E2E2E2E2E2E2E2E2E2E2E2E2E2E2E2E2E2E2E2E2E2E2E2E2E2E2E2E2E2E2E2E2E2E2E2E2E2E2E2E2E2E2E2E2E2E2E2E2E2
310
E2E2E2E2E2E2E2E2E2E2E2E2E2E2E2E2E2E2E2E2E2E2E2E2E2E2E2E2E2E2E2E2E2E2E2E2E2E2E2E2E2E2E2E2E2E2E2E2E2F5E2E2E2F5F5F5E2E2E2E2F5E2E2E2E2E2E2E2E2E2E2E2E2E2E2E2E2E2E2E2E2E2E2E2E2E2E2E2E2E2E2E2E2E2E2E2E2E2E2E2E2E2E2E2F5E2E2E2E2E2E2E2E2E2F5F5E2E2E2E2E2E2E2E2E2E2F5
310
E2E2E2F5E2E2E2E2E2E2F5E2E2E2E2E2E2E2E2E2E2E2E2E2E2E2E2E2E2E2E2E2E2E2E2E2E2E2E2E2E2E2E2E2E2E2E2E2E2E2E2E2E2E2E2E2E2E2E2E2E2E2E2E2E2E2E2E2E2E2E2E2E2E2E2E2E2E2E2E2E2E2E2E2E2E2E2E2E2E2E2E2E2E2E2E2E2E2E2E2E2E2E2E2E2E2E2E2E2E2E2E2E2E2E2E2E2E2F5E2E2E2E2F5F5E2E2
310
E2E2F5E2E2E2E2E2E2E2E2E2E2E2E2E2E2E2E2E2E2E2E2E2E2E2E2E2E2E2E2E2E2E2E2E2E2E2E2E2E2E2E2E2E2E2F5E2E2E2E2E2E2E2E2E2F5F5E2E2E2E2E2E2E2E2E2E2F5E2E2E2F5E2E2E2E2E2E2F5E2E2E2E2E2E2E2E2E2E2E2E2E2E2E2E2E2E2E2E2E2E2E2E2E2E2E2E2E2E2E2E2E2E2E2E2E2E2E2E2E2E2E2E2E2E2E2
310
E2E2E2E2E2E2E2E2E2E2E2E2E2E2E2E2E2E2E2E2E2E2E2E2E2E2E2E2E2E2E2E2E2E2E2E2E2E2E2E2E2E2E2E2E2E2E2E2E2E2E2E2E2E2E2E2E2E2E2E2F5E2E2E2E2E2F5E2E2E2E2F5E2E2E2E2E2E2E2E2E2E2E2E2E2E2E2E2E2E2E2E2E2E2E2E2E2E2E2E2E2E2E2E2E2E2E2E2E2E2E2E2E2E2E2F5E2E2E2E2E2E2E2E2E2E2F5
310
E2E2E2E2E2E2E2E2E2E2F5E2E2E2F5E2E2E2E2E2E2F5E2E2E2E2E2E2E2E2E2E2E2E2E2E2E2E2E2E2E2E2E2E2E2E2E2E2E2E2E2E2E2E2E2E2E2E2E2E2E2E2E2E2E2E2E2E2E2E2E2E2E2E2E2E2E2E2E2E2E2E2E2E2E2E2E2E2E2E2E2E2E2E2E2E2E2E2E2E2E2E2E2E2E2E2E2E2E2E2E2E2E2E2E2E2E2E2E2E2E2E2E2E2E2E2E2
310
E2E2F5E2E2E2E2E2F5E2E2E2E2F5E2E2E2E2E2E2E2E2E2E2E2E2E2E2E2E2E2E2E2E2E2F5F5F5F5F5F5E2E2E2E2E2E2E2E2E2E2E2E2E2E2E2E2F5E2E2E2E2E2E2E2E2E2E2F5E2E2E2E2E2E2E2E2E2E2F5E2E2E2F5E2E2E2E2E2E2F5E2E2E2E2E2E2E2E2E2E2E2E2E2E2E2E2E2E2E2E2E2E2E2E2E2E2E2E2E2E2E2E2E2E2E2E2
310
E2E2E2E2E2E2E2E2E2E2E2E2E2E2E2E2E2E2E2E2E2E2E2E2E2E2E2E2E2E2E2E2E2E2E2E2E2E2E2E2E2E2E2E2E2E2E2E2E2E2E2E2E2E2E2E2E2E2E2E2E2E2E2E2E2E2E2E2E2E2E2F5E2E2E2E2E2F5E2E2E2E2F5E2E2E2E2E2E2E2E2E2E2E2E2E2E2E2E2E2E2E2E2E2F5F5F5F5F5F5E2E2E2E2E2E2E2E2E2E2E2E2E2E2E2E2F5
310
E2E2E2E2E2E2E2E2E2E2F5E2E2E2E2E2E2E2E2E2E2F5E2E2E2F5E2E2E2E2E2E2F5E2E2E2E2E2E2E2E2E2E2E2E2E2E2E2E2E2E2E2E2E2E2E2E2E2E2E2E2E2E2E2E2E2E2E2E2E2E2E2E2E2E2E2E2E2E2E2E2E2E2E2E2E2E2E2E2E2E2E2E2E2E2E2E2E2E2E2E2E2E2E2E2E2E2E2E2E2E2E2E2E2E2E2E2E2E2E2E2E2E2E2E2E2E2
310
E2E2E2E2E2E2E2E2E2E2E2E2E2F5E2E2E2E2E2F5F5F5F5F5F5F5F5F5F5F5F5F5F5F5F5F5F5F5F5F5F5F5F5F5F5F5F5F5F5F5F5F5E2F5F5F5F5F5F5F5F5F5F5F5F5F5F5F5F5F5F5F5F5F5F5F5F5F5F5F5E2E2E2E2E2E2E2E2E2E2F5E2E2E2F5E2E2E2E2E2E2F5E2E2E2E2E2E2E2E2E2E2E2E2E2E2E2E2E2E2E2E2E2E2E2E2E2
310
E2E2E2E2E2E2E2E2E2E2E2E2E2E2E2E2E2E2E2E2E2E2E2E2E2E2E2E2E2E2E2E2E2E2E2E2E2E2E2E2E2E2E2E2E2E2E2E2E2E2E2E2E2E2E2E2E2E2E2E2E2E2E2E2E2E2E2E2E2E2E2E2E2E2E2E2E2E2E2E2E2E2F5E2E2E2E2E2F5E2F5F5F5F5E2E2E2E2E2E2E2E2E2E2E2E2E2E2E2E2E2E2E2E2E2F5F5F5F5F5F5E2E2E2E2E2E2
310
E2E2E2E2E2E2E2E2E2E2F5E2E2E2E2E2E2F5F5F5E2F5E2E2E2E2E2E2E2E2E2E2F5E2E2E2F5E2E2E2E2E2E2F5E2E2E2E2E2E2E2E2E2E2E2E2E2E2E2E2E2E2E2E2E2E2E2E2E2E2E2E2E2E2E2E2E2E2E2E2E2E2E2E2E2E2E2E2E2E2E2E2E2E2E2E2E2E2E2E2E2E2E2E2E2E2E2E2E2E2E2E2E2E2E2E2E2E2E2E2E2E2E2E2E2E2E2
310
E2E2E2E2E2E2E2E2E2E2E2E2E2E2E2E2E2E2E2E2E2E2E2E2F5E2E2E2E2E2E2E2E2E2E2F5E2E2E2E2E2E2E2E2E2E2E2E2E2E2E2E2E2E2E2E2E2E2E2E2E2E2E2E2E2E2E2E2E2E2E2E2E2E2E2E2E2E2E2F5E2E2E2E2E2E2E2E2E2E2E2E2E2E2E2E2E2E2E2E2E2F5E2E2E2F5E2E2E2E2E2E2F5E2E2E2E2E2E2E2E2E2E2E2E2E2E2
310
E2E2E2E2E2E2E2E2E2E2E2E2E2E2E2E2E2E2E2E2E2E2E2E2E2E2E2E2E2E2E2E2E2E2E2E2E2E2E2E2E2E2E2E2E2E2E2E2E2E2E2E2E2E2E2E2E2E2E2E2E2E2E2E2E2E2E2E2E2E2E2E2E2E2E2E2E2E2E2E2E2E2E2E2E2E2E2E2E2E2E2E2E2F5E2E2E2E2E2E2E2E2E2E2F5E2E2E2E2E2E2E2E2E2E2E2E2E2E2E2E2E2E2E2E2E2E2
310
E2E2E2E2E2E2E2E2E2E2E2E2E2E2E2E2E2E2E2E2E2F5E2E2E2E2E2E2E2E2E2E2E2E2E2E2E2E2E2E2E2E2E2F5E2E2E2F5E2E2E2E2E2E2F5E2E2E2E2E2E2E2E2E2E2E2E2E2E2E2E2E2E2E2E2E2E2E2E2E2E2E2E2E2E2E2E2E2E2E2E2E2E2E2E2E2E2E2E2E2E2E2E2E2E2E2E2E2E2E2E2E2E2E2E2E2E2E2E2E2E2E2E2E2E2E2E2
310
E2E2E2E2E2E2E2E2E2E2E2E2E2E2E2E2E2E2E2E2E2E2E2E2E2E2E2E2E2E2E2E2E2E2E2F5E2E2E2E2E2E2E2E2E2E2F5E2E2E2E2E2E2E2E2E2E2E2E2E2E2E2E2E2E2E2E2E2E2E2E2E2E2E2E2E2E2E2E2E2E2E2E2E2E2E2E2E2E2E2F5E2E2E2E2E2E2E2E2E2E2E2E2E2E2E2E2E2E2E2E2E2F5E2E2E2F5E2E2E2E2E2E2F5E2E2E2
310
E2E2E2E2E2E2E2E2E2E2E2E2E2E2E2E2E2E2E2E2E2E2E2E2E2E2E2E2E2E2E2E2E2E2E2E2E2E2E2E2E2E2E2E2E2E2E2E2E2E2E2E2E2E2E2E2E2E2E2E2E2E2E2E2E2E2E2E2E2E2E2E2E2E2E2E2E2E2E2E2E2E2E2E2E2E2E2E2E2E2E2E2F5F5F5F5E2E2E2E2E2E2E2E2F5E2E2E2E2E2E2E2E2E2E2F5E2E2E2E2E2E2E2E2E2E2E2
310
E2E2E2E2E2E2E2E2E2E2E2E2E2E2E2E2E2E2E2E2E2E2E2E2E2E2E2E2E2E2E2E2F5E2E2E2E2E2E2E2F5F5F5F5F5F5E2E2E2E2E2E2E2E2F5E2E2E2F5E2E2E2E2E2E2F5E2E2E2E2E2E2E2E2E2E2E2E2E2E2E2E2E2E2E2E2E2E2E2E2E2E2E2E2E2E2E2E2E2E2E2E2E2E2E2E2E2E2E2E2E2E2E2E2E2E2E2E2E2E2E2E2E2E2E2E2E2
310
E2E2E2E2E2E2E2E2E2E2E2E2E2E2E2E2E2E2E2E2E2E2E2E2E2E2E2E2E2E2E2E2E2E2F5F5F5F5E2E2E2E2E2E2E2E2F5E2E2F5F5E2E2F5F5E2E2F5E2E2E2E2E2E2E2E2E2E2E2E2E2E2E2E2E2E2E2E2E2E2E2E2E2E2E2E2E2E2E2E2E2E2E2E2E2E2E2E2E2E2E2F5E2E2F5F5E2E2E2F5F5F5F5F5F5E2E2E2E2F5F5E2E2F5E2E2E2
310
F5E2E2E2E2E2E2F5E2E2E2E2E2E2E2E2E2E2E2E2E2E2E2E2E2E2E2E2E2E2E2E2E2E2E2E2E2E2E2E2E2E2E2E2E2E2E2E2E2E2E2E2E2E2E2E2E2E2E2E2E2E2E2E2E2E2E2E2E2E2E2E2E2E2E2E2E2E2E2E2E2E2E2E2E2E2E2E2E2E2E2E2E2E2E2E2E2E2E2E2E2E2E2F5F5F5F5E2F5F5F5F5F5F5F5F5F5F5F5F5F5F5F5F5F5F5F5
310
E2E2E2E2E2E2E2E2E2E2E2E2E2E2E2E2E2E2E2E2E2E2E2E2E2E2E2E2E2E2E2E2E2E2E2E2E2E2E2E2E2E2E2F5F5F5F5F5F5F5F5F5F5F5F5F5F5E2F5F5F5F5F5F5F5F5E2E2E2F5E2E2E2E2E2E2F5E2E2E2E2E2E2E2E2E2E2E2E2E2E2E2E2E2E2E2E2E2E2E2E2E2E2E2E2E2E2E2E2E2E2E2E2E2E2E2E2E2E2E2E2E2E2E2E2E2E2
310
E2E2E2E2E2E2E2E2E2E2E2E2E2E2E2E2E2E2E2E2E2E2E2E2E2E2E2E2E2E2E2E2E2E2E2E2E2E2E2E2E2E2E2E2E2F5F5F5F5E2E2E2E2E2E2E2E2E2E2E2E2E2E2E2E2E2E2E2E2E2E2E2E2E2E2E2E2E2E2E2E2E2E2E2E2E2E2E2E2E2E2E2E2E2E2E2E2E2E2E2E2E2E2E2E2E2E2E2E2E2E2E2E2E2E2E2E2E2E2E2E2E2E2E2E2E2E2
310
E2E2E2E2E2E2E2E2E2E2E2F5E2E2E2E2E2E2F5E2E2E2E2E2E2E2E2E2E2E2E2E2E2E2E2E2E2E2E2E2E2E2E2E2E2E2E2E2E2E2E2E2E2E2E2E2E2E2E2E2E2E2E2E2E2E2E2E2E2E2E2E2E2E2E2E2E2E2E2E2E2E2E2E2E2E2E2E2E2E2E2E2E2E2E2E2E2E2E2E2E2E2E2E2E2E2E2E2E2E2E2E2E2E2E2E2E2E2E2E2E2E2E2E2E2E2E2
310
E2E2E2E2E2E2E2E2E2E2E2E2E2E2E2E2E2E2E2E2E2E2E2E2E2E2E2E2E2E2E2E2E2E2E2E2E2E2E2E2E2E2E2E2E2E2E2E2E2E2E2E2E2E2E2E2E2E2E2E2E2E2E2E2E2E2E2E2E2E2E2E2E2E2E2E2E2E2E2E2F5E2E2E2E2E2E2F5E2E2E2E2E2E2E2E2E2E2E2E2E2E2E2E2E2E2E2E2E2E2E2E2E2E2E2E2E2E2E2E2E2E2E2E2E2E2E2
310
E2E2E2E2E2E2E2E2E2E2E2E2E2E2E2E2E2E2E2E2E2E2E2E2E2E2E2E2E2E2E2E2E2E2E2E2E2E2E2E2E2E2E2E2E2E2E2E2E2E2E2E2E2E2E2E2E2E2E2E2E2E2E2E2E2E2E2E2E2E2E2E2E2E2E2E2E2E2E2E2E2E2E2E2E2E2E2E2E2E2E2E2E2E2E2E2E2E2E2E2E2E2E2E2E2E2E2E2E2E2E2E2E2E2E2E2E2E2E2E2E2E2E2E2E2E2E2
310
E2E2E2E2E2E2E2E2E2E2E2E2E2E2E2E2E2E2E2E2E2E2F5E2E2E2E2E2E2F5E2E2E2E2E2E2E2E2E2E2E2E2E2E2E2E2E2E2E2E2E2E2E2E2E2E2E2E2E2E2E2E2E2E2E2E2E2E2E2E2E2E2E2E2E2E2E2E2E2E2E2E2E2E2E2E2E2E2E2E2E2E2E2E2E2E2E2E2E2E2E2E2E2E2E2E2E2E2E2E2E2E2E2E2E2E2E2E2E2E2E2E2E2E2E2E2E2
310
E2E2E2E2E2E2E2E2E2E2E2E2E2E2E2E2E2E2E2E2E2E2E2E2E2E2E2E2E2E2E2E2E2E2E2E2E2E2E2E2E2E2E2E2E2E2E2E2E2E2E2E2E2E2E2E2E2E2E2E2E2E2E2E2E2E2E2E2E2E2E2E2E2E2E2E2E2E2E2E2E2E2E2E2E2E2E2E2E2E2E2F5E2E2E2E2E2E2F5E2E2E2E2E2E2E2E2E2E2E2E2E2E2E2E2E2E2E2E2E2E2E2E2E2E2E2E2
310
E2E2E2E2E2E2E2E2E2E2E2E2E2E2E2E2E2E2E2E2E2E2E2E2E2E2E2E2E2E2E2E2E2E2E2E2E2E2E2E2E2E2E2E2E2E2E2E2E2E2E2E2E2E2E2E2E2E2E2E2E2E2E2E2E2E2E2E2E2E2E2E2E2E2E2E2E2E2E2E2E2E2E2E2E2E2E2E2E2E2E2E2E2E2E2E2E2E2E2E2E2E2E2E2E2E2E2E2E2E2E2E2E2E2E2E2E2E2E2E2E2E2E2E2E2E2E2
310
E2E2E2E2E2E2E2E2E2E2E2E2E2E2E2E2E2E2E2E2E2E2E2E2E2E2E2E2E2E2E2E2E2F5E2E2E2E2E2E2F5E2E2E2E2E2E2E2E2E2E2E2E2E2E2E2E2E2E2E2E2E2E2E2E2E2E2E2E2E2E2E2E2E2E2E2E2E2E2E2E2E2E2E2E2E2E2E2E2E2E2E2E2E2E2E2E2E2E2E2E2E2E2E2E2E2E2E2E2E2E2E2E2E2E2E2E2E2E2E2E2E2E2E2E2E2E2
310
E2E2E2E2E2E2E2E2E2E2E2E2E2E2E2E2E2E2E2E2E2E2E2E2E2E2E2E2E2E2E2E2E2E2E2E2E2E2E2E2E2E2E2E2E2E2E2E2E2E2E2E2E2E2E2E2E2E2E2E2E2E2E2E2E2E2E2E2E2E2E2E2E2E2E2E2E2E2E2E2E2E2E2E2E2E2E2E2E2E2E2E2E2E2E2E2E2E2E2E2E2E2F5E2E2E2E2E2E2F5F5F5F5F5F5F5F5F5F5F5F5F5F5F5F5F5F5
310
F5F5F5F5F5F5F5F5F5F5F5F5F5F5F5F5F5F5F5F5F5F5F5F5F5F5F5F5F5F5F5F5F5F5F5F5F5F5F5F5F5F5F5F5F5F5F5F5F5F5F5F5F5F5F5F5F5F5F5F5F5F5F5F5F5F5F5F5F5F5F5F5F5F5F5F5F5F5F5F5F5F5F5F5F5F5F5F5F5F5F5F5F5F5F5F5F5F5F5F5F5F5F5F5F5F5F5F5F5F5F5F5F5F5F5F5F5F5F5F5F5F5F5F5F5F5F5
310
F5F5F5F5F5F5F5F5F5F5F5F5F5F5F5F5F5F5F5F5F5F5F5F5F5F5F5F5F5F5F5F5F5F5F5F5F5F5F5F5F5F5F5F5F5E2E2E2E2E2E2F5F5F5F5F5F5F5F5F5F5F5F5F5F5F5F5F5F5F5F5F5F5F5F5F5F5F5F5F5F5F5F5F5F5F5F5F5F5F5F5F5F5F5F5F5F5F5F5F5F5F5F5F5F5F5F5F5F5F5F5F5F5F5F5F5F5F5F5F5F5F5F5F5F5F5F5
310
F5F5F5F5F5F5F5F5F5F5F5F5F5F5F5F5F5F5F5F5F5F5F5F5F5F5F5F5F5F5F5F5F5F5F5F5F5F5F5F5F5F5F5F5F5F5F5F5F5F5F5F5F5F5F5F5F5F5F5F5F5F5F5F5F5F5F5F5F5F5F5F5F5F5F5F5F5F5F5F5F5F5F5F5F5F5F5F5F5F5F5F5F5F5F5F5F5F5F5F5F5F5F5F5F5F5F5F5F5F5F5F5F5F5E2E2E2E2E2E2E2E2E2E2E2E2E2
310
E2E2E2E2E2E2E2E2E2E2E2E2E2E2E2E2E2E2E2E2E2E2E2E2E2E2E2E2E2E2E2E2E2E2E2E2E2E2E2E2E2E2E2E2E2E2E2E2E2E2E2E2E2E2E2E2E2E2E2E2E2E2E2E2E2E2E2E2E2E2E2E2E2E2E2E2E2E2E2E2E2E2E2E2E2E2E2E2E2E2E2E2E2E2E2E2E2E2E2E2E2E2E2E2E2E2E2E2E2E2E2E2E2E2E2E2E2E2E2E2E2E2E2E2E2E2E2
310
E2E2E2E2E2E2E2E2E2E2E2E2E2E2E2E2E2E2E2E2E2E2E2E2E2E2E2E2E2E2E2E2E2E2E2E2E2E2E2E2E2E2E2E2E2E2E2E2E2E2E2E2E2E2E2E2E2E2E2
  0
XRECORD
  5
31B
102
{ACAD_REACTORS
330
319
102
}
330
319
100
AcDbXrecord
280
     1
270
     1
271
     1
  0
XRECORD
  5
31A
102
{ACAD_REACTORS
330
319
102
}
330
319
100
AcDbXrecord
280
     1
270
     1
271
     1
  0
XRECORD
  5
31E
102
{ACAD_REACTORS
330
319
102
}
330
319
100
AcDbXrecord
280
     1
270
     1
271
     1
  0
XRECORD
  5
31D
102
{ACAD_REACTORS
330
319
102
}
330
319
100
AcDbXrecord
280
     1
270
     1
271
     1
  0
XRECORD
  5
31F
102
{ACAD_REACTORS
330
319
102
}
330
319
100
AcDbXrecord
280
     1
270
     1
271
     1
  0
XRECORD
  5
31C
102
{ACAD_REACTORS
330
319
102
}
330
319
100
AcDbXrecord
280
     1
270
     1
271
     1
  0
XRECORD
  5
313
102
{ACAD_REACTORS
330
311
102
}
330
311
100
AcDbXrecord
280
     1
270
     1
271
     1
  0
XRECORD
  5
312
102
{ACAD_REACTORS
330
311
102
}
330
311
100
AcDbXrecord
280
     1
270
     1
271
     1
  0
XRECORD
  5
316
102
{ACAD_REACTORS
330
311
102
}
330
311
100
AcDbXrecord
280
     1
270
     1
271
     1
  0
XRECORD
  5
315
102
{ACAD_REACTORS
330
311
102
}
330
311
100
AcDbXrecord
280
     1
270
     1
271
     1
  0
XRECORD
  5
317
102
{ACAD_REACTORS
330
311
102
}
330
311
100
AcDbXrecord
280
     1
270
     1
271
     1
  0
XRECORD
  5
314
102
{ACAD_REACTORS
330
311
102
}
330
311
100
AcDbXrecord
280
     1
270
     1
271
     1
  0
XRECORD
  5
323
102
{ACAD_REACTORS
330
321
102
}
330
321
100
AcDbXrecord
280
     1
270
     1
271
     1
  0
XRECORD
  5
322
102
{ACAD_REACTORS
330
321
102
}
330
321
100
AcDbXrecord
280
     1
270
     1
271
     1
  0
XRECORD
  5
326
102
{ACAD_REACTORS
330
321
102
}
330
321
100
AcDbXrecord
280
     1
270
     1
271
     1
  0
XRECORD
  5
325
102
{ACAD_REACTORS
330
321
102
}
330
321
100
AcDbXrecord
280
     1
270
     1
271
     1
  0
XRECORD
  5
327
102
{ACAD_REACTORS
330
321
102
}
330
321
100
AcDbXrecord
280
     1
270
     1
271
     1
  0
XRECORD
  5
324
102
{ACAD_REACTORS
330
321
102
}
330
321
100
AcDbXrecord
280
     1
270
     1
271
     1
  0
XRECORD
  5
4B49
102
{ACAD_REACTORS
330
4B48
102
}
330
4B48
100
AcDbXrecord
280
     1
102
ACAD_ROUNDTRIP_2012_MLEADER_STYLE
298
     1
  0
CELLSTYLEMAP
  5
10988
102
{ACAD_REACTORS
330
685
102
}
330
685
100
AcDbCellStyleMap
 90
        3
300
CELLSTYLE
  1
TABLEFORMAT_BEGIN
 90
        5
170
     1
 91
        0
 92
    32768
 62
   257
 93
        1
300
CONTENTFORMAT
  1
CONTENTFORMAT_BEGIN
 90
        0
 91
        0
 92
      512
 93
        0
300

 40
0.0
140
1.0
 94
        5
 62
     0
340
11
144
0.25
309
CONTENTFORMAT_END
171
     0
 94
        0
309
TABLEFORMAT_END
  1
CELLSTYLE_BEGIN
 90
        1
 91
        1
300
_TITLE
309
CELLSTYLE_END
300
CELLSTYLE
  1
TABLEFORMAT_BEGIN
 90
        5
170
     1
 91
        0
 92
        0
 62
   257
 93
        1
300
CONTENTFORMAT
  1
CONTENTFORMAT_BEGIN
 90
        0
 91
        0
 92
      512
 93
        0
300

 40
0.0
140
1.0
 94
        5
 62
     0
340
11
144
0.18
309
CONTENTFORMAT_END
171
     0
 94
        0
309
TABLEFORMAT_END
  1
CELLSTYLE_BEGIN
 90
        2
 91
        1
300
_HEADER
309
CELLSTYLE_END
300
CELLSTYLE
  1
TABLEFORMAT_BEGIN
 90
        5
170
     1
 91
        0
 92
        0
 62
   257
 93
        1
300
CONTENTFORMAT
  1
CONTENTFORMAT_BEGIN
 90
        0
 91
        0
 92
      512
 93
        0
300

 40
0.0
140
1.0
 94
        2
 62
     0
340
11
144
0.18
309
CONTENTFORMAT_END
171
     0
 94
        0
309
TABLEFORMAT_END
  1
CELLSTYLE_BEGIN
 90
        3
 91
        2
300
_DATA
309
CELLSTYLE_END
  0
XRECORD
  5
1F10
102
{ACAD_REACTORS
330
1F0F
102
}
330
1F0F
100
AcDbXrecord
280
     1
102
RTVSPropertyOp28
 70
     1
102
RTVSPropertyOp29
 70
     1
102
RTVSPropertyOp30
 70
     1
102
RTVSPropertyOp31
 70
     1
102
RTVSPropertyOp32
 70
     1
  0
XRECORD
  5
1F0E
102
{ACAD_REACTORS
330
1F0D
102
}
330
1F0D
100
AcDbXrecord
280
     1
102
RTVSPropertyOp28
 70
     1
102
RTVSPropertyOp29
 70
     1
102
RTVSPropertyOp30
 70
     1
102
RTVSPropertyOp31
 70
     1
102
RTVSPropertyOp32
 70
     1
  0
XRECORD
  5
1F1C
102
{ACAD_REACTORS
330
1F1B
102
}
330
1F1B
100
AcDbXrecord
280
     1
102
RTVSPropertyOp28
 70
     1
102
RTVSPropertyOp29
 70
     1
102
RTVSPropertyOp30
 70
     1
102
RTVSPropertyOp31
 70
     1
102
RTVSPropertyOp32
 70
     1
  0
XRECORD
  5
1F24
102
{ACAD_REACTORS
330
1F23
102
}
330
1F23
100
AcDbXrecord
280
     1
102
RTVSPropertyOp28
 70
     1
102
RTVSPropertyOp29
 70
     1
102
RTVSPropertyOp30
 70
     1
102
RTVSPropertyOp31
 70
     1
102
RTVSPropertyOp32
 70
     1
  0
XRECORD
  5
1F16
102
{ACAD_REACTORS
330
1F15
102
}
330
1F15
100
AcDbXrecord
280
     1
102
RTVSPropertyOp28
 70
     1
102
RTVSPropertyOp29
 70
     1
102
RTVSPropertyOp30
 70
     1
102
RTVSPropertyOp31
 70
     1
102
RTVSPropertyOp32
 70
     1
  0
XRECORD
  5
1F1A
102
{ACAD_REACTORS
330
1F19
102
}
330
1F19
100
AcDbXrecord
280
     1
102
RTVSPropertyOp28
 70
     1
102
RTVSPropertyOp29
 70
     1
102
RTVSPropertyOp30
 70
     1
102
RTVSPropertyOp31
 70
     1
102
RTVSPropertyOp32
 70
     1
  0
XRECORD
  5
1F34
102
{ACAD_REACTORS
330
1F33
102
}
330
1F33
100
AcDbXrecord
280
     1
102
RTVSPropertyOp28
 70
     0
102
RTVSPropertyOp29
 70
     0
102
RTVSPropertyOp30
 70
     0
102
RTVSPropertyOp31
 70
     0
102
RTVSPropertyOp32
 70
     0
  0
XRECORD
  5
1F22
102
{ACAD_REACTORS
330
1F21
102
}
330
1F21
100
AcDbXrecord
280
     1
102
RTVSPropertyOp28
 70
     1
102
RTVSPropertyOp29
 70
     1
102
RTVSPropertyOp30
 70
     1
102
RTVSPropertyOp31
 70
     1
102
RTVSPropertyOp32
 70
     1
  0
XRECORD
  5
1F06
102
{ACAD_REACTORS
330
1F05
102
}
330
1F05
100
AcDbXrecord
280
     1
102
RTVSPropertyOp28
 70
     1
102
RTVSPropertyOp29
 70
     1
102
RTVSPropertyOp30
 70
     1
102
RTVSPropertyOp31
 70
     1
102
RTVSPropertyOp32
 70
     1
  0
XRECORD
  5
1F08
102
{ACAD_REACTORS
330
1F07
102
}
330
1F07
100
AcDbXrecord
280
     1
102
RTVSPropertyOp28
 70
     1
102
RTVSPropertyOp29
 70
     1
102
RTVSPropertyOp30
 70
     1
102
RTVSPropertyOp31
 70
     1
102
RTVSPropertyOp32
 70
     1
  0
XRECORD
  5
1F0A
102
{ACAD_REACTORS
330
1F09
102
}
330
1F09
100
AcDbXrecord
280
     1
102
RTVSPropertyOp28
 70
     1
102
RTVSPropertyOp29
 70
     1
102
RTVSPropertyOp30
 70
     1
102
RTVSPropertyOp31
 70
     1
102
RTVSPropertyOp32
 70
     1
  0
XRECORD
  5
1F0C
102
{ACAD_REACTORS
330
1F0B
102
}
330
1F0B
100
AcDbXrecord
280
     1
102
RTVSPropertyOp28
 70
     1
102
RTVSPropertyOp29
 70
     1
102
RTVSPropertyOp30
 70
     1
102
RTVSPropertyOp31
 70
     1
102
RTVSPropertyOp32
 70
     1
  0
XRECORD
  5
1F14
102
{ACAD_REACTORS
330
1F13
102
}
330
1F13
100
AcDbXrecord
280
     1
102
RTVSPropertyOp28
 70
     1
102
RTVSPropertyOp29
 70
     1
102
RTVSPropertyOp30
 70
     1
102
RTVSPropertyOp31
 70
     1
102
RTVSPropertyOp32
 70
     1
  0
XRECORD
  5
1F30
102
{ACAD_REACTORS
330
1F2F
102
}
330
1F2F
100
AcDbXrecord
280
     1
102
RTVSPropertyOp28
 70
     0
102
RTVSPropertyOp29
 70
     0
102
RTVSPropertyOp30
 70
     0
102
RTVSPropertyOp31
 70
     0
102
RTVSPropertyOp32
 70
     0
  0
XRECORD
  5
1F20
102
{ACAD_REACTORS
330
1F1F
102
}
330
1F1F
100
AcDbXrecord
280
     1
102
RTVSPropertyOp28
 70
     1
102
RTVSPropertyOp29
 70
     1
102
RTVSPropertyOp30
 70
     1
102
RTVSPropertyOp31
 70
     1
102
RTVSPropertyOp32
 70
     1
  0
XRECORD
  5
1F32
102
{ACAD_REACTORS
330
1F31
102
}
330
1F31
100
AcDbXrecord
280
     1
102
RTVSPropertyOp28
 70
     0
102
RTVSPropertyOp29
 70
     0
102
RTVSPropertyOp30
 70
     0
102
RTVSPropertyOp31
 70
     0
102
RTVSPropertyOp32
 70
     0
  0
XRECORD
  5
1F18
102
{ACAD_REACTORS
330
1F17
102
}
330
1F17
100
AcDbXrecord
280
     1
102
RTVSPropertyOp28
 70
     1
102
RTVSPropertyOp29
 70
     1
102
RTVSPropertyOp30
 70
     1
102
RTVSPropertyOp31
 70
     1
102
RTVSPropertyOp32
 70
     1
  0
XRECORD
  5
1F2E
102
{ACAD_REACTORS
330
1F2D
102
}
330
1F2D
100
AcDbXrecord
280
     1
102
RTVSPropertyOp28
 70
     1
102
RTVSPropertyOp29
 70
     1
102
RTVSPropertyOp30
 70
     1
102
RTVSPropertyOp31
 70
     1
102
RTVSPropertyOp32
 70
     1
  0
XRECORD
  5
1F2C
102
{ACAD_REACTORS
330
1F2B
102
}
330
1F2B
100
AcDbXrecord
280
     1
102
RTVSPropertyOp28
 70
     1
102
RTVSPropertyOp29
 70
     1
102
RTVSPropertyOp30
 70
     1
102
RTVSPropertyOp31
 70
     1
102
RTVSPropertyOp32
 70
     1
  0
XRECORD
  5
1F26
102
{ACAD_REACTORS
330
1F25
102
}
330
1F25
100
AcDbXrecord
280
     1
102
RTVSPropertyOp28
 70
     1
102
RTVSPropertyOp29
 70
     1
102
RTVSPropertyOp30
 70
     1
102
RTVSPropertyOp31
 70
     1
102
RTVSPropertyOp32
 70
     1
  0
XRECORD
  5
1F28
102
{ACAD_REACTORS
330
1F27
102
}
330
1F27
100
AcDbXrecord
280
     1
102
RTVSPropertyOp28
 70
     1
102
RTVSPropertyOp29
 70
     1
102
RTVSPropertyOp30
 70
     1
102
RTVSPropertyOp31
 70
     1
102
RTVSPropertyOp32
 70
     1
  0
XRECORD
  5
1F1E
102
{ACAD_REACTORS
330
1F1D
102
}
330
1F1D
100
AcDbXrecord
280
     1
102
RTVSPropertyOp28
 70
     1
102
RTVSPropertyOp29
 70
     1
102
RTVSPropertyOp30
 70
     1
102
RTVSPropertyOp31
 70
     1
102
RTVSPropertyOp32
 70
     1
  0
XRECORD
  5
1F12
102
{ACAD_REACTORS
330
1F11
102
}
330
1F11
100
AcDbXrecord
280
     1
102
RTVSPropertyOp28
 70
     1
102
RTVSPropertyOp29
 70
     1
102
RTVSPropertyOp30
 70
     1
102
RTVSPropertyOp31
 70
     1
102
RTVSPropertyOp32
 70
     1
  0
XRECORD
  5
1F2A
102
{ACAD_REACTORS
330
1F29
102
}
330
1F29
100
AcDbXrecord
280
     1
102
RTVSPropertyOp28
 70
     1
102
RTVSPropertyOp29
 70
     1
102
RTVSPropertyOp30
 70
     1
102
RTVSPropertyOp31
 70
     1
102
RTVSPropertyOp32
 70
     1
  0
ENDSEC
  0
EOF
